Guitar Tabs, Chords and Lyrics
Server problems seems to be fixed. Chordie has been experiencing problems with songs disappearing. These issues now seems to be fixed, but still verifying the fix. If you find anything strange, please email admin@chordie.com.


This Is the End   Machine Head

 
 -||---------------------------------------------------------------------------|
 -||---11-----11-----11--10h11p10-8------10-----10-----------------------------|
 -||---------------------------------10----------------9-----9---------9h10-7--|
 -||-------8------8--------------------------7------7-----7-----7---0----------|
 -||---------------------------------------------------------------------------|
 -||---------------------------------------------------------------------------|
 ------------------------------------------------------------------------------|
 --------------10-------------------------10h11-10-----------------------------|
 ------9h10-7-----10-----8h9-6-----8h9-6--------------9h10-7---9h10-7----------|
 ---0-----------------7---------7------------------8---------8---------5--7--8-|
 ------------------------------------------------------------------------------|
 ------------------------------------------------------------------------------|
 ------------------------------------------------------------------------------|
 -------------5--10h11-10------------------------10----------------------------|
 -------7--6------------------9h10-7-----9h10-7------10-----8h9-6-----8h9-6----|
 -5--7---------------------0----------0------------------7---------7-----------|
 ------------------------------------------------------------------------------|
 ------------------------------------------------------------------------------|
 ----------------------------------------------------------------------|-------|
 -10h11-10--------------------------------------------5--10h11--10-----|-x2----|
 --------------9h10-7---9h10-7------------------7--6-------------------|-------|
 -----------8---------8----------5--7--8--5--7-------------------------|-------|
 ----------------------------------------------------------------------|-------|
 ----------------------------------------------------------------------|-------|
 -------------------------------------------------------------------------||---|
 ---11------11-----11--10h11p10-8------10-----10--------------------------||---|
 ----------------------------------10----------------9------9-------------||---|
 --------8------8--------------------------7------7-----7-----------------||---|
 -------------------------------------------------------------------------||---|
 -------------------------------------------------------------------------||---|
 -||---------------------------------------------------------------------------|
 -||---------------------------------------------------------------------------|
 -||-------------------------------------------------------------14-14-14-14---|
 -||--0--15-15-15-15-12-12-12-12-0-0-0-0-15-15-15-15-12-12-12-12---------------|
 -||---------------------------------------------------------------------------|
 -||---------------------------------------------------------------------------|
 ------------------------------------------------------------------------------|
 ------------------------------------------------------------------------------|
 ------------------------------------------------------------------------------|
 -15-15-15-15-------14-14-14-14-11-11-11-11-------------14-14-14-14-11-11-11---|
 -------------12----------------------------12-12-12-12------------------------|
 ------------------------------------------------------------------------------|
 ------------------------------------------------------------------------------|
 ------------------------------------------------------------------------------|
 -----15-15-15-15-14-14-14-14--------------------------------------------------|
 --11-----------------------------15-15-15-15-12-12-12-12-------------15-15-15-|
 -----------------------------13--------------------------13-13-13-13----------|
 ------------------------------------------------------------------------------|
 ------------------------------------------------------------------------------|
 ------------------------------------------------------------------------------|
 ----------------------------------------15-15-15-15-------------14-14-14-14---|
 -15-14-14-14-14-15-15-15-15-17-17-17-17-------------17-17-17-17---------------|
 ------------------------------------------------------------------------------|
 ------------------------------------------------------------------------------|
 -------------------------------------18-18-18-18-17-17-17-17----------||------|
 -15-15-15-15-14-14-14-14-17-17-17-17----------------------------------||------|
 ----------------------------------------------------------------------||------|
 ----------------------------------------------------------------------||------|
 ----------------------------------------------------------------------||------|
 ----------------------------------------------------------------------||------|
 -||---------------------------------------------------------------------------|
 -||---------------------------------------------------------------------------|
 -||---------------------------------------------------------------------------|
 -||---------------------8/7-----3/5------------------------------------8/7----|
 -||-----8/7-----3/5-----------------------------------8/7-----3/5-------------|
 -||--0-------0-------0-------0-------0-0-0--0-0-0--0-------0-------0----------|
 - - - - - - - - - - - - -
 ------------------------------------------------------------------------------|
 ----------6p5-----------------------------------------------------------------|
 --------------5h7-------------------------------------------------------------|
 -----3/5------------------------------8/7----3/5------------------------------|
 ----------------------8/7-----3/5-------------------8/7--3p0------------------|
 --0----------------0-------0-------0------0-------------------7--7-7-7--7-----|
 - - - - - - - - - -
 ------------------------------------------------------------------------------|
 ------------------------------------------------------------------------------|
 ------------------------------------------------------------------------------|
 --------------------------------------------------------------8/7-----3/5-----|
 ----------------------------------------------8/7-----3/5---------------------|
 -7-7-7--7-7-7--7--7-7-7--7--7-7-7--7-7-7---0-------0-------0-------0----------|
 - - - - - - - - - - - - - - - - - - - - -
 ------------------------------------------------------------------------------|
 -------------------------------------------------6p5--------------------------|
 -----------------------------------------------------5h7----------------------|
 ----------------------------------8/7-----3/5---------------------------------|
 ------------------8/7-----3/5--------------------------------8/7-----3/5------|
 -0-0-0--0-0-0--0-------0-------0-------0------------------0-------0-------0---|
 - - - - - - - - - - - - -
 ------------------------------------------------------------------------------|
 ------------------------------------------------------------------------------|
 ------------------------------------------------------------------------------|
 --8/7-----3/5-----------------------------------------------------------------|
 -----------------8/7--3p0-----------------------------------------------------|
 -------0--------------------7--7-7-7--7--7-7-7--7-7-7--7--7-7-7--7--7-7-7-----|
 - - - - - - - - - - - - - - - - - - - -
 ------------------------------------------------------------------------------|
 ------------------------------------------------------------------------------|
 --------14--14-14-14--14--14-14-14--14-14-14--14--14-14-14--14--14-14-14--14--|
 ------------------------------------------------------------------------------|
 --------12--12-12-12--12--12-12-12--12-12-12--12--12-12-12--12--12-12-12--12--|
 -7-7-7------------------------------------------------------------------------|

 


 [-] [-] [-]  


 

 
 ----------||------------------------------------------------------------------|
 ----------||------------------------------------------------------------------|
 -14-14----||------------------------------------------------------------------|
 ----------||------------------------------------------------------------------|
 -12-12----||------------------------------------------------------------------|
 ----------||------------------------------------------------------------------|
 -||---------------------------------------------------------------------------|
 -||---------------------------------------------------------------------------|
 -||-------------------------------------------------------------14-14-14-14---|
 -||--0--15-15-15-15-12-12-12-12-0-0-0-0-15-15-15-15-12-12-12-12---------------|
 -||---------------------------------------------------------------------------|
 -||---------------------------------------------------------------------------|
 ------------------------------------------------------------------------------|
 ------------------------------------------------------------------------------|
 ------------------------------------------------------------------------------|
 -15-15-15-15------14-14-14-14-11-11-11-11-------------14-14-14-14-11-11-11-11-|
 --------------12--------------------------12-12-12-12-------------------------|
 ------------------------------------------------------------------------------|
 ------------------------------------------------------------------------------|
 ------------------------------------------------------------------------------|
 -15-15-15-15-14-14-14-14------------------------------------------------------|
 -----------------------------15-15-15-15-12-12-12-12-------------15-15-15-15--|
 -------------------------13--------------------------13-13-13-13--------------|
 ------------------------------------------------------------------------------|
 ------------------------------------------------------------------------------|
 -------------------------------------------------------------------------15---|
 -------------------------------------15-15-15-15-------------14-14-14-14------|
 -14-14-14-14-15-15-15-15-17-17-17-17-------------17-17-17-17------------------|
 ------------------------------------------------------------------------------|
 ------------------------------------------------------------------------------|
 ----------------------------------18-18-18-18-17-17-17------------------------|
 -15-15-15-14-14-14-14-17-17-17-17---------------------------------------------|
 ------------------------------------------------------------14-14-14-14-------|
 --------------------------------------------------------0---------------15-15-|
 ------------------------------------------------------------------------------|
 ------------------------------------------------------------------------------|
 ------------------------------------------------------------------------------|
 ----------------------------------------15-15-15-15---------------------------|
 ----------------14-14-14-14-------------------------14-14-14-14-----12-12-12--|
 -15-15-0-0-0-0--------------15-15-15-15---------------------------------------|
 ----------------------------------------------------------------12------------|
 ------------------------------------------------------------------------------|
 ------------------------------------------------------------------------------|
 -----------------------------------------------------15-15-15-15-14-14-14-14--|
 -12-------------------------12-12-12-12---------------------------------------|
 ----14-14-14-14-------------------------14-14-14-14---------------------------|
 ----------------12-12-12-12---------------------------------------------------|
 ------------------------------------------------------------------------------|
 ------------------------------------------------------------------------------|
 ------------------------------------------------------------------------------|
 ------14-14-14-14---------------------------14-14-14-14-12-12-12-12-14-14-14--|
 ------------------15-15-15-15-------------------------------------------------|
 -13----------------------------13-13-13-13------------------------------------|
 ------------------------------------------------------------------------------|
 ------------------------------------------------------------------------------|
 -----------------15-15-15-15-------------14-14-14-14-18-18-18-18-17-17-17-17--|
 -14-15-15-15-15--------------15-15-15-15--------------------------------------|
 ------------------------------------------------------------------------------|
 ------------------------------------------------------------------------------|
 ------------------------------------------------------------------------------|
 --------------22-22-22-22-21-21-21-21--------------------------------------|-|
 -20-20-20-20---------------------------------------------------------------|-|
 ---------------------------------------------------------------------------|-|
 ---------------------------------------------------------------------------|-|
 ---------------------------------------------------------------------------|-|
 ---------------------------------------------------------------------------|-|
 -|----------------------------------------------------------------------------|
 -|----------------------------------------------------------------------------|
 -|----------------------------------------------------------------------------|
 -|---------------------8/7-----3/5-------------------------------------8/7----|
 -|-----8/7-----3/5-------------------------------------8/7-----3/5------------|
 -|--0-------0-------0-------0-------0-0-0--0-0-0-0--0-------0-------0---------|
 ------------------------------------------------------------------------------|
 -----------6p5----------------------------------------------------------------|
 ---------------5h7------------------------------------------------------------|
 -----3/5-------------------------------8/7-----3/5----------------------------|
 -----------------------8/7-----3/5--------------------8/7--3p0----------------|
 --0-----------------0-------0-------0-------0--------------------7--7-7-7--7--|
 ------------------------------------------------------------------------------|
 ------------------------------------------------------------------------------|
 ------------------------------------------14--14-14-14--14--14-14-14--14-14---|
 ------------------------------------------------------------------------------|
 ------------------------------------------12--12-12-12--12--12-12-12--12-12---|
 -7-7-7--7-7-7--7--7-7-7--7--7-7-7--7-7-7--------------------------------------|
 ------------------------------------------------|-----------------------------|
 ------------------------------------------------|-----------------------------|
 -14---14--14-14-14--14--14-14-14--14-14-14------|-----------------------------|
 ------------------------------------------------|-----------------------------|
 -12---12--12-12-12--12--12-12-12--12-12-12------|-----------------------------|
 ------------------------------------------------|-----------------------------|
 -||---------------------------------------------------------------------------|
 -||---------------------------------------------------------------------------|
 -||---------------------------------------------------------------------------|
 -||---------------------8/7-----3/5------------------------------------8/7----|
 -||-----8/7-----3/5-----------------------------------8/7-----3/5-------------|
 -||--0-------0-------0-------0-------0-0-0--0-0-0--0-------0-------0----------|
 - - - - - - - - - - - - -
 ------------------------------------------------------------------------------|
 ----------6p5-----------------------------------------------------------------|
 --------------5h7-------------------------------------------------------------|
 -----3/5------------------------------8/7----3/5------------------------------|
 ----------------------8/7-----3/5-------------------8/7--3p0------------------|
 --0----------------0-------0-------0------0-------------------7--7-7-7--7-----|
 - - - - - - - - - -
 ------------------------------------------------------------------------------|
 ------------------------------------------------------------------------------|
 ------------------------------------------------------------------------------|
 --------------------------------------------------------------8/7-----3/5-----|
 ----------------------------------------------8/7-----3/5---------------------|
 -7-7-7--7-7-7--7--7-7-7--7--7-7-7--7-7-7---0-------0-------0-------0----------|
 - - - - - - - - - - - - - - - - - - - - -
 ------------------------------------------------------------------------------|
 -------------------------------------------------6p5--------------------------|
 -----------------------------------------------------5h7----------------------|
 ----------------------------------8/7-----3/5---------------------------------|
 ------------------8/7-----3/5--------------------------------8/7-----3/5------|
 -0-0-0--0-0-0--0-------0-------0-------0------------------0-------0-------0---|
 - - - - - - - - - - - - -
 ------------------------------------------------------------------------------|
 ------------------------------------------------------------------------------|
 ------------------------------------------------------------------------------|
 --8/7-----3/5-----------------------------------------------------------------|
 -----------------8/7--3p0-----------------------------------------------------|
 -------0--------------------7--7-7-7--7--7-7-7--7-7-7--7--7-7-7--7--7-7-7-----|
 - - - - - - - - - - - - - - - - - - - -
 ------------------------------------------------------------------------------|
 ------------------------------------------------------------------------------|
 --------14--14-14-14--14--14-14-14--14-14-14--14--14-14-14--14--14-14-14--14--|
 ------------------------------------------------------------------------------|
 --------12--12-12-12--12--12-12-12--12-12-12--12--12-12-12--12--12-12-12--12--|
 -7-7-7------------------------------------------------------------------------|

 


 [-] [-] [-]  


 

 
 -||---------------------------------------------------------------------------|
 -||---------------------------------------------------------------------------|
 -||-------------------------------------------------------------14-14-14-14---|
 -||--0--15-15-15-15-12-12-12-12-0-0-0-0-15-15-15-15-12-12-12-12---------------|
 -||---------------------------------------------------------------------------|
 -||---------------------------------------------------------------------------|
 ------------------------------------------------------------------------------|
 ------------------------------------------------------------------------------|
 ------------------------------------------------------------------------------|
 -15-15-15-15------14-14-14-14-11-11-11-11-------------14-14-14-14-11-11-11-11-|
 --------------12--------------------------12-12-12-12-------------------------|
 ------------------------------------------------------------------------------|
 ------------------------------------------------------------------------------|
 ------------------------------------------------------------------------------|
 -15-15-15-15-14-14-14-14------------------------------------------------------|
 -----------------------------15-15-15-15-12-12-12-12-------------15-15-15-15--|
 -------------------------13--------------------------13-13-13-13--------------|
 ------------------------------------------------------------------------------|
 ------------------------------------------------------------------------------|
 -------------------------------------------------------------------------15---|
 -------------------------------------15-15-15-15-------------14-14-14-14------|
 -14-14-14-14-15-15-15-15-17-17-17-17-------------17-17-17-17------------------|
 ------------------------------------------------------------------------------|
 ------------------------------------------------------------------------------|
 ----------------------------------18-18-18-18-17-17-17------------------------|
 -15-15-15-14-14-14-14-17-17-17-17---------------------------------------------|
 ------------------------------------------------------------14-14-14-14-------|
 --------------------------------------------------------0---------------15-15-|
 ------------------------------------------------------------------------------|
 ------------------------------------------------------------------------------|
 ------------------------------------------------------------------------------|
 ----------------------------------------15-15-15-15---------------------------|
 ----------------14-14-14-14-------------------------14-14-14-14-----12-12-12--|
 -15-15-0-0-0-0--------------15-15-15-15---------------------------------------|
 ----------------------------------------------------------------12------------|
 ------------------------------------------------------------------------------|
 ------------------------------------------------------------------------------|
 -----------------------------------------------------15-15-15-15-14-14-14-14--|
 -12-------------------------12-12-12-12---------------------------------------|
 ----14-14-14-14-------------------------14-14-14-14---------------------------|
 ----------------12-12-12-12---------------------------------------------------|
 ------------------------------------------------------------------------------|
 ------------------------------------------------------------------------------|
 ------------------------------------------------------------------------------|
 ------14-14-14-14---------------------------14-14-14-14-12-12-12-12-14-14-14--|
 ------------------15-15-15-15-------------------------------------------------|
 -13----------------------------13-13-13-13------------------------------------|
 ------------------------------------------------------------------------------|
 ------------------------------------------------------------------------------|
 -----------------15-15-15-15-------------14-14-14-14-18-18-18-18-17-17-17-17--|
 -14-15-15-15-15--------------15-15-15-15--------------------------------------|
 ------------------------------------------------------------------------------|
 ------------------------------------------------------------------------------|
 ------------------------------------------------------------------------------|
 --------------22-22-22-22-21-21-21-21--------------------------------------|-|
 -20-20-20-20---------------------------------------------------------------|-|
 ---------------------------------------------------------------------------|-|
 ---------------------------------------------------------------------------|-|
 ---------------------------------------------------------------------------|-|
 ---------------------------------------------------------------------------|-|
 -||---------------------------------------------------------------------------|
 -||---------------------------------------------------------------------------|
 -||---------------------------------------------------------------------------|
 -||--8-----------8-----8------------8-------------------8-----------8-----8---|
 -||-----5--0--5-----5-----5--0--5------0-------------------5--0--5-----5------|
 -||----------------------------------------0--0--0--0-------------------------|

 


 [-] [-] [-] [-] 


 

 
 ------------------------------------------------------------------------------|
 ------------------------------------------------------------------------------|
 ------------------------------------------------------------------------------|
 ------15p0--14p0--10p0--8-----------8-----8-----------8------------------0----|
 --5/-----------------------5--0--5-----5-----5--0--5-----0--------------------|
 ------------------------------------------------------------0--0--0--0--------|

 


 [-] [-] [-] [-] 


 

 
 -------------------------------------------|------------------------------||--|
 -------------------------------------------|------------------------------||--|
 -------------------------------------------|------------------------------||--|
 -15p0-14p0-17p0-15p0-19p0-17p0-19p0-20p0---|---8--8----7--8--7--5--3--7---||--|
 -------------------------------------------|---8--8----7--8--7--5--3--7---||--|
 -------------------------------------------|---8--8----7--8--7--5--3--7---||--|
 -||---------------------------------------------------------------------------|
 -||---------------------------------------------------------------------------|
 -||-------------------------------------------7-------------------------------|
 -||-------------------------8/7------3/5---------7-----------------------8/7--|
 -||------8/7-------3/5----------------------------------8/7------3/5----------|
 -||--0---------0---------0-------0---------0--------0--------0--------0-------|
 - - - - N.H - -
 ------------------------------------------------------------------------------|
 ------------------------------------------------------------------------------|
 --------------7---------------------------------------------------------------|
 -----3/5---------7------------------------8/7-----3/5-------------------------|
 -------------------------8/7-----3/5----------------------8/7-------8/7-------|
 --0-------0----------8--------0-------0--------0-------0-------10--------0----|
 - - N.H - - - - -
 -----------13------|--------------------||------------------------------------|
 -----------16b-----|--------------------||------------------------------------|
 -------------------|--------------------||------------------------------------|
 -------------------|--------------------||------------------------------------|
 --3/5--------------|----0---------------||------------------------------------|
 --------0----------|----0---------------||------------------------------------|

 


 [-]  


 

 
 -||-----------------------------------------------------------|---------------|
 -||-----------------------------------------------------------|-x4------------|
 -||-----------------------------------------------------------|---------------|
 -||-----------------------------------------------------------|---------------|
 -||-----------------------------------------------------------|---------------|
 -||-0--0-0-0--0--0-0-0--0-0-0--0--0-0-0--0--0-0-0--0-0-0-0----|---------------|

 


 Palm Mute


 


 

 
 ------------------------------------------------------------------------------|
 ------------------------------------------------------------------------------|
 ------------------------------------------------------------------------------|
 ------------------------------------------------------------------------------|
 ------------------------------------------------------------------------------|
 --3--3-3-3--3--3-3-3--3-3-3--3--3-3-3--3--3-3-3--3-3-3--7--7-7-7--7--7-7-7----|
 ------------------------------------------------------------------------------|
 ------------------------------------------------------------------------------|
 ------------------------------------------------------------------------------|
 ------------------------------------------------------------------------------|
 ------------------------------------5--5-5-5--5--5-5-5--5-5-5--5--5-5-5--5----|
 -7-7-7--7--7-7-7--7--7-7-7--7-7-7---------------------------------------------|
 ------------------------------------------------------------------------||----|
 ------------------------------------------------------------------------||----|
 ------------------------------------------------------------------------||----|
 ------------------------------------------------------------------------||----|
 -5-5-5--5-5-5---3--3-3-3--3--3-3-3--3-3-3--3--3-3-3--3--3-3-3--3-3-3----||----|
 ------------------------------------------------------------------------||----|
 -||---------------------------------------------------------------------------|
 -||---------------------------------------------------------------------------|
 -||-------3--5--3----5--7--3----7--9--7----9-10--9---10--12-10----12--14--12--|
 -||---2-----------------------------------------------------------------------|
 -||---0---1--3--1----3--5--3----5--7--5----7--8--7----8--10--8----10--12--10--|
 -||---------------------------------------------------------------------------|
 --------------------------5p0-0-5p0-0-5p0-6p0-6p0-3p0-3p0-5p0-0-5p0-0-5p0-6p0-|
 ------------------------------------------------------------------------------|
 --14--15--14---12-10----------------------------------------------------------|
 ------------------------------------------------------------------------------|
 --12--13--12---10--8----------------------------------------------------------|
 ------------------------------------------------------------------------------|
 -6p0-3p0-3p0-5p0-0-5p0-0-5p0-6--||--------------------------------------------|
 --------------------------------||--------------------------------------------|
 --------------------------------||--------------------------------------------|
 --------------------------------||--------------------------------------------|
 --------------------------------||--------------------------------------------|
 --------------------------------||--------------------------------------------|
 -||---------------------------------------------------------------------------|
 -||---------------------------------------------------------------------------|
 -||-------------------------------------------------------------14-14-14-14---|
 -||--0--15-15-15-15-12-12-12-12-0-0-0-0-15-15-15-15-12-12-12-12---------------|
 -||---------------------------------------------------------------------------|
 -||---------------------------------------------------------------------------|
 ------------------------------------------------------------------------------|
 ------------------------------------------------------------------------------|
 ------------------------------------------------------------------------------|
 -15-15-15-15------14-14-14-14-11-11-11-11-------------14-14-14-14-11-11-11-11-|
 --------------12--------------------------12-12-12-12-------------------------|
 ------------------------------------------------------------------------------|
 ------------------------------------------------------------------------------|
 ------------------------------------------------------------------------------|
 -15-15-15-15-14-14-14-14------------------------------------------------------|
 -----------------------------15-15-15-15-12-12-12-12-------------15-15-15-15--|
 -------------------------13--------------------------13-13-13-13--------------|
 ------------------------------------------------------------------------------|
 ------------------------------------------------------------------------------|
 -------------------------------------------------------------------------15---|
 -------------------------------------15-15-15-15-------------14-14-14-14------|
 -14-14-14-14-15-15-15-15-17-17-17-17-------------17-17-17-17------------------|
 ------------------------------------------------------------------------------|
 ------------------------------------------------------------------------------|
 ----------------------------------18-18-18-18-17-17-17------------------------|
 -15-15-15-14-14-14-14-17-17-17-17---------------------------------------------|
 ------------------------------------------------------------14-14-14-14-------|
 --------------------------------------------------------0---------------15-15-|
 ------------------------------------------------------------------------------|
 ------------------------------------------------------------------------------|
 ------------------------------------------------------------------------------|
 ----------------------------------------15-15-15-15---------------------------|
 ----------------14-14-14-14-------------------------14-14-14-14-----12-12-12--|
 -15-15-0-0-0-0--------------15-15-15-15---------------------------------------|
 ----------------------------------------------------------------12------------|
 ------------------------------------------------------------------------------|
 ------------------------------------------------------------------------------|
 -----------------------------------------------------15-15-15-15-14-14-14-14--|
 -12-------------------------12-12-12-12---------------------------------------|
 ----14-14-14-14-------------------------14-14-14-14---------------------------|
 ----------------12-12-12-12---------------------------------------------------|
 ------------------------------------------------------------------------------|
 ------------------------------------------------------------------------------|
 ------------------------------------------------------------------------------|
 ------14-14-14-14---------------------------14-14-14-14-12-12-12-12-14-14-14--|
 ------------------15-15-15-15-------------------------------------------------|
 -13----------------------------13-13-13-13------------------------------------|
 ------------------------------------------------------------------------------|
 ------------------------------------------------------------------------------|
 -----------------15-15-15-15-------------14-14-14-14-18-18-18-18-17-17-17-17--|
 -14-15-15-15-15--------------15-15-15-15--------------------------------------|
 ------------------------------------------------------------------------------|
 ------------------------------------------------------------------------------|
 ------------------------------------------------------------------------------|
 --------------22-22-22-22-21-21-21-21--------------------------------------|-|
 -20-20-20-20---------------------------------------------------------------|-|
 ---------------------------------------------------------------------------|-|
 ---------------------------------------------------------------------------|-|
 ---------------------------------------------------------------------------|-|
 ---------------------------------------------------------------------------|-|
 -||---------------------------------------------------------------------------|
 -||---------------------------------------------------------------------------|
 -||---------------------------------------------------------------------------|
 -||---------------------8/7-----3/5-----------------------------------8/7-----|
 -||-----8/7-----3/5-----------------------------------8/7-----3/5-------------|
 -||--0-------0-------0-------0-------0-0-0--0-0-0--0-------0-------0-------0--|
 - - - - - - - - - - - - - -
 ------------------------------------------------------------------------------|
 ------6p5---------------------------------------------------------------------|
 -----------5h7----------------------------------------------------------------|
 -3/5--------------------------------8/7-----3/5-------------------------------|
 -------------------8/7------3/5-----------------------------------8/7-----3/5-|
 ----------------0--------0-------0-------0-------0-0-0--0-0-0--0-------0------|
 - - - - - - - - - - - -
 -------------||---------------------------------------------------------------|
 -------------||---------------------------------------------------------------|
 -------------||---------------------------------------------------------------|
 -------------||---------------------------------------------------------------|
 --8---0------||---------------------------------------------------------------|
 ------0------||---------------------------------------------------------------|


Important: The song above is NOT stored on the Chordie server. The original song is hosted at www.guitartabs.cc. Chordie works as a search engine and provides on-the-fly formatting. Chordie does not index songs against artists'/composers' will. To remove this song please click here.

This song is displayed as text-only. Transposing and tuning is only available for chordpro-songs.
Rate #1 of 2 versions

Login - add to songbook

SHARE PAGE  




You need to log in to post comments