Guitar Tabs, Chords and Lyrics
Update 25:10. 13:00. Site is back up running again. Songbooks are recovered. Woring on getting search back up..


Spare Change?  Mad Caddies

Pretty simple song, yet a really nice song to hear and play with
Intro
With some weird effect and palm muted, dunno what, but i'm pretty sure these are the notes
(0:00 - 0:23) Till vocals come in
 
 e|----------------------------------------------------------------------------|
 B|----------------------------------------------------------------------------|
 G|--4--4---4-4--4---4-4--4---4-4--4---4-5--5---5-5--5---5--5--5--9---7-7-5----|
 D|----------------------------------------------------------------------------|
 A|----------------------------------------------------------------------------|
 E|----------------------------------------------------------------------------|

A 2nd guitar comes in playing this, and continues through the Verse
(0:12 - 0:44)
[C] [Cmaj7] [Dm]  
 
 e|-x-3-x-3-x-3-x-3-x-5-x-5-x-5-x-5-----|
 B|-x-5-x-5-x-5-x-5-x-6-x-6-x-6-x-6-----|
 G|-x-5-x-5-x-4-x-4-x-7-x-7-x-7-x-7-----|
 D|-x-5-x-5-x-5-x-5-x-7-x-7-x-7-x-7-----|
 A|-------------------------------------|
 E|-------------------------------------|

(0:45 - 0:57)
[Em] [F] [Em] [F] [G]  
 
 e|--x-7-x-7-x-7-x-7-x-1-x-1-x-1-x-1-x-7-x-7-x-7-x-7-x-8--x-8--x-10-x-10-|
 B|--x-8-x-8-x-8-x-8-x-1-x-1-x-1-x-1-x-8-x-8-x-8-x-8-x-10-x-10-x-12-x-12-|
 G|--x-9-x-9-x-9-x-9-x-2-x-2-x-2-x-2-x-9-x-9-x-9-x-9-x-10-x-10-x-12-x-12-|
 D|--x-9-x-9-x-9-x-9-x-3-x-3-x-3-x-3-x-9-x-9-x-9-x-9-x-10-x-10-x-12-x-12-|
 A|----------------------------------------------------------------------|
 E|----------------------------------------------------------------------|

Chorus
(0:57 - 1:20)
[C] [F] [G]  
 
 e|--x-3-x-3-x-3-x-3-x-1-x-1-x-3-x-3--|
 B|--x-5-x-5-x-5-x-5-x-1-x-1-x-3-x-3--|
 G|--x-5-x-5-x-5-x-5-x-2-x-2-x-4-x-4--|
 D|--x-5-x-5-x-5-x-5-x-3-x-3-x-5-x-5--| x 3
 A|-----------------------------------|
 E|-----------------------------------|

[Am] [F]  
 
 e|--x-5-x-5-x-5-x-5-x-1-x-1-x-1-x-1--|
 B|--x-5-x-5-x-5-x-5-x-2-x-2-x-2-x-2--|
 G|--x-5-x-5-x-5-x-5-x-3-x-3-x-3-x-3--|
 D|--x-7-x-7-x-7-x-7-x-3-x-3-x-3-x-3--|
 A|-----------------------------------|
 E|-----------------------------------|

(Set by the world aside.........)
Fill + Verse
(1:21 - 1:54)
[C] [Cmaj7] [Dm]  
 
 e|---3-x-3-x-3-x-3-x-5-x-5-x-5-x-5-----|
 B|---5-x-5-x-5-x-5-x-6-x-6-x-6-x-6-----|
 G|---5-x-5-x-4-x-4-x-7-x-7-x-7-x-7-----|
 D|-5-5-x-5-x-5-x-5-x-7-x-7-x-7-x-7-----|
 A|-3-----------------------------------|
 E|-------------------------------------|

( Tab from: https://www.guitartabs.cc/tabs/m/mad_caddies/spare_change_tab.html )
(1:55 - 2:06)
[Em] [F] [Em] [F] [G]  
 
 e|--x-7-x-7-x-7-x-7-x-1-x-1-x-1-x-1-x-7-x-7-x-7-x-7-x-8--x-8--x-10-x-10-|
 B|--x-8-x-8-x-8-x-8-x-1-x-1-x-1-x-1-x-8-x-8-x-8-x-8-x-10-x-10-x-12-x-12-|
 G|--x-9-x-9-x-9-x-9-x-2-x-2-x-2-x-2-x-9-x-9-x-9-x-9-x-10-x-10-x-12-x-12-|
 D|--x-9-x-9-x-9-x-9-x-3-x-3-x-3-x-3-x-9-x-9-x-9-x-9-x-10-x-10-x-12-x-12-|
 A|----------------------------------------------------------------------|
 E|----------------------------------------------------------------------|

Chorus
(2:06 - 2:29)
[C] [F] [G]  
 
 e|--x-3-x-3-x-3-x-3-x-1-x-1-x-3-x-3--|
 B|--x-5-x-5-x-5-x-5-x-1-x-1-x-3-x-3--|
 G|--x-5-x-5-x-5-x-5-x-2-x-2-x-4-x-4--|
 D|--x-5-x-5-x-5-x-5-x-3-x-3-x-5-x-5--| x 3
 A|-----------------------------------|
 E|-----------------------------------|

[Am] [F]  
 
 e|--x-5-x-5-x-5-x-5-x-3-x-3-x-3-x-3--|
 B|--x-5-x-5-x-5-x-5-x-4-x-4-x-4-x-4--|
 G|--x-5-x-5-x-5-x-5-x-5-x-5-x-5-x-5--|
 D|--x-7-x-7-x-7-x-7-x-5-x-5-x-5-x-5--|
 A|-----------------------------------|
 E|-----------------------------------|

(Down by the world aside.........)
(2:30 - 2:35)
[Am] [G]  
 
 e|--5-----------3--|
 B|--5-----------3--|
 G|--5-----------4--|
 D|--7-----------5--|
 A|--7-----------5--|
 E|--5-----------3--|

(Set by the world aside..........)
Outro
(2:36 - 2:53)
Guitar 1 - Palm muted + effect?
 
 e|----------------------------------------------------------------------------|
 B|----------------------------------------------------------------------------|
 G|--4--4---4-4--4---4-4--4---4-4--4---4-5--5---5-5--5---5--5--5--9---7-7-5----|
 D|----------------------------------------------------------------------------|x 3
 A|----------------------------------------------------------------------------|
 E|----------------------------------------------------------------------------|

Guitar 2
[C] [Cmaj7] [Dm]  
 
 e|-x-3-x-3-x-3-x-3-x-5-x-5-x-5-x-5-----|
 B|-x-5-x-5-x-5-x-5-x-6-x-6-x-6-x-6-----|
 G|-x-5-x-5-x-4-x-4-x-7-x-7-x-7-x-7-----|
 D|-x-5-x-5-x-5-x-5-x-7-x-7-x-7-x-7-----|x 3
 A|-------------------------------------|
 E|-------------------------------------|

Ending
(2:53 -
Guitar 1 - Palm muted + effect?
 
 e|--------------------------------------------------------------|
 B|--------------------------------------------------------------|
 G|--4--4---4-4--4---4-4--4---4-4--4---4-5--5---5-5--5---5--5----|
 D|--------------------------------------------------------------|
 A|--------------------------------------------------------------|
 E|--------------------------------------------------------------|

Guitar 2
[C] [Cmaj7] [Dm] [Cmaj7]  
 
 e|-x-3-x-3-x-3-x-3-x-5-x-5-x-5------0|
 B|-x-5-x-5-x-5-x-5-x-6-x-6-x-6------0|
 G|-x-5-x-5-x-4-x-4-x-7-x-7-x-7------0|
 D|-x-5-x-5-x-5-x-5-x-7-x-7-x-7------2|
 A|---------------------------5------3|
 E|---------------------------5------3|


Important: The song above is NOT stored on the Chordie server. The original song is hosted at www.guitartabs.cc. Chordie works as a search engine and provides on-the-fly formatting. Chordie does not index songs against artists'/composers' will. To remove this song please click here.

Text color:
Chord color:
Chord grids: 
Font size:    
Page size: 

Am C Cmaj7 Dm Em F G
Rate #1 of 3 versions

Jango Player

Login - add to songbook

SHARE PAGE  



You need to log in to post comments