Guitar Tabs, Chords and Lyrics
Major upgrade!! After one year development the new version of Chordie is now online! Please give feedback.


Vocal  Madrugada

Author/Artist: Madrugada
Title: Vocal
Album: Industrial Silence
Transcribed by: DMS og RH
Standard tuning (EADGBE)
The main riff is played with small variations all the time.
When you play A in the verses, you can change a little bit between
A and Asus.
The chords in this tab are the same that are beeing used in the
acoustic version on "A deadend mind EP".
Vibrato = ~
Intro, verse (fig 1 and the next time fig 2, then fig 1, etc.):
[Em] [D] [A]  
 
 e||-0--0----2--2-----0--0------------------------------|
 B||-0----0--3----3---2----2----------------------------|Fig 1.
 G||-0-------2------2-2------2--------------------------|
 D||-2-------0--------2---------------------------------|
 A||-2----------------0---------------------------------|
 E||-0----------------0---------------------------------|

[Em] [D] [A]  
 
 e||-0--0----2--2-----0--0------------------------------|
 B||-0----0--3----3---2----2-----2----------------------|Fig 2.
 G||-0-------2------2-2------2-----2--------------------|
 D||-2-------0--------2---------------------------------|
 A||-2----------------0---------------------------------|
 E||-0----------------0---------------------------------|

Variation verse 2 (transcribed from a live bootleg recording).
[Em] [D] [A]  
 
 e||-------7-----------5-----------5----------5---------|
 B||-----8---8-------7---7-------5---5------5---5-------|Fig 3.
 G||---9-------9---7-------7---6------6---6-------6-----|
 D||-9-----------7-----------7----------7-----------7---|
 A||----------------------------------------------------|
 E||----------------------------------------------------|

Solo 1:
 
 e||---------------------------------------------------------------|
 B||---------------------------------------------------------------|
 G||-----------------------------------7/9-97-97-------------9-----|
 D||-7/9--9/7--9-7/9--7/9--97--7-7/9---------------7/9--97-9-------|
 A||---------------------------------------------------------------|
 E||---------------------------------------------------------------|

Solo 2(With disturtion):
 
 e||------------------------------------------------------------|
 B||------------------------------------------------------------|
 G||-7h9--7h9--7h9-(9)p7--9---7--------9-----9--------------9---|
 D||----------------------------11-------11-----11---9--7---9---|
 A||--------------------------------------------------------7---|
 E||------------------------------------------------------------|
 e||------------------------------------------------------------|
 B||------------------------------------------5-----------------|
 G||-7h9--7h9--7h9-(9)p7--9--9----------------6-------------9---|
 D||----------------------------11------------7------9--7---9---|
 A||------------------------------------------7-------------7---|
 E||------------------------------------------------------------|
 e||--------------------------------------------------------------|
 B||--------------------------------------------------------------|
 G||----------------7------7--9--7/9b---9----9--------------------|
 D||-----7h9-7--7h9----7h9----------------11---11--9--7-67-9------|
 A||-7h9----------------------------------------------------------|
 E||--------------------------------------------------------------|
 e||-----------------------------------------------------------|
 B||-----------------------------------------------------------|
 G||-----------------------------------------------------------|
 D||-----7h9-7-------7------7-7h9-7~~~-------------------------|
 A||-7h9---------7h9----7h9------------------------------------|
 E||-----------------------------------------------------------|

Intro:
(6x Em D A)
Verse 1:
[Em]You better run, you [D]better run
You better not wait t[A]oo long
[Em]You better run, you better [D]run
You better run for you have a h[A]eart
[Em]So let's start, so let's st[D]art
So let's start, tear it all a[A]part
[Em]You better run, you better [D]run
You better run for you have a h[A]eart
Chorus :
[G]Well, oh, well
Oh, you know it'[D]s only so much I can t[A]ake
[G]I buried my head in that pill[D]ow for a million da[A]ys
So, oh,[G] oh well, I'm sorr[D]y but I do not care to wai[A]t
[G]Dare not wal[Bm]k through the li[A]ght
[G]Dare not wal[Bm]k through the li[A]ght
Solo 1 (4x Em D A)
Verse 2:
[Em]Your vision's travelled [D]far today
So why[A] don't you run away
[Em]Your vision's travelled far[D] today
Like in the[A] times when you say
[Em]I have a cry, I have a [D]cry, and I will not be contai[A]ned
[Em]I have a cry, I have a [D]cry, and I will not be contai[A]ned, no
Chorus:
[G]Oh, well
Oh you know it is [D]only so much I can [A]take
[G]Buried my head in that pillo[D]w a million days[A] oh, oh
Oh we[G]ll, I'm sorry[D] but I do not care to w[A]ait
[G]Oh, dare not walk [Bm]through the ligh[A]t
[G]Dare not walk thr[Bm]ough the ligh[A]t, oh
Solo 2(4x Em D A)
[G]Oh, dare not walk through the l[Bm]ight[A]
[G]Dare not walk through the li[Bm]ght[A]
[G]Uuuhh uuu[Bm]hhh uuuh[A]h uhuhu[G]uu uh [Bm]uuuhh[A]

Important: The song above is NOT stored on the Chordie server. The original song is hosted at www.guitartabs.cc. Chordie works as a search engine and provides on-the-fly formatting. Chordie does not index songs against artists'/composers' will. To remove this song please click here.

Text color:
Chord color:
Chord grids: 
Font size:    
Page size: 

A Bm D Em G
Rate #0 of 5 versions

Jango Player

Login - add to songbook

SHARE PAGE  



You need to log in to post comments