Guitar Tabs, Chords and Lyrics
Major upgrade!! After one year development the new version of Chordie is now online! Please give feedback.


Alice and Interiors  Manchester Orchestra

Song: Alice and Interiors
Album: I'm Like A Virgin Losing A Child
tabbed by: recebedou
email: recebedou@yahoo.com
Standard Tuning: CAPO II [all cbords relative to capo]
Chords used:
EADGBe
C: 032010
Cmj7:032000
D: 000232
Em: 022000
G: 320033
 
 -----------------------------------------------------------------

Intro riff: [play 2x for intro]
[Cmj7]  
 
 e|--------------------------------------------------|
 B|----------0----------0----------0-----------------|
 G|---0-2-0----2-0----0------0-2-0---2-0--0----------| then,
 D|-----------------------------------------4/5-2----|
 A|-3---------------3--------------------------------|
 E|--------------------------------------------------|

[Em]  
 
 e|-------------------0-------------------0----------|
 B|-----------------0-------------------0---0--------|
 G|--0-2-0---0----0------0-2-0---0----0-------0------|
 D|--------4---2---------------4---2-----------------|
 A|--------------------------------------------------|
 E|--------------------------------------------------|

Verse 1 chords: [play Intro riff witb verse 1]
[Cmj7]I swear I'll tried again, you're never visible on the weekdays
[Em]When I need you to do what you can't afford to do
[Cmj7]You better watch your tone, you're not invisible you know
[Em]I'll do what I have do to stop the sound coming from you
[ Tab from: bttp://www.guitartabs.cc/tabs/m/mancbester_orcbestra/alice_and_interiors_crd.btml ] 
Chorus 1 chords:
Cause the [C]truth is you're [Em]probably not as [G]bad as I [Em]make you [D]out to [C]be
To the [Em]boys and the [G]girls, that [Em]will listen [D]closely, [C]know
I'm the [Em]one that is [G]happy, you can [Em]write the [D]coolest [C]songs
I was [G]wrong, yeah I'm always [D]wrong
Verse 2: [use verse 1 cbords]
And my God what do we have here
I've been trying hard and you've been dying hard for years now
Well I swear I did it all, I'll always be my best flaw
Please just pick up the phone, am I invincible, you know
I'll do what I've gotta do to stop the sound coming
Chorus 2: [use cborus 1 cbords]
Cause the truth is you're probably not as bad as I thought that you were being
To the boys and myself, we're just tired of listening, know
I'm the one that is sorry. Help me write the coolest songs
You were wrong. Yeah you're always wrong
Interlude: [play intro cbords]
Chorus 3: [cborus 1 cbords]
Cause the truth is that no one, truly knows what the hell it is you're doing
When we ask are you dead or are you just sleeping Oh yeah
I'm the one that is happy. I don't like your shitty songs
You were wrong, yeah you're always wrong
Outro: [play intro cbords]

Important: The song above is NOT stored on the Chordie server. The original song is hosted at www.guitartabs.cc. Chordie works as a search engine and provides on-the-fly formatting. Chordie does not index songs against artists'/composers' will. To remove this song please click here.

Text color:
Chord color:
Chord grids: 
Font size:    
Page size: 

C D Em G
Rate #1 of 2 versions

Login - add to songbook

SHARE PAGE  




You need to log in to post comments