Guitar Tabs, Chords and Lyrics
Login is temporarily disabled for some users. Do not panic. Will be back in an hour or two. DO NOT REREGISTER!!


Wolves at Night  Manchester Orchestra

I couldn't find any tabs for this song so i tried to figure it out myself with the help
their performance on Letterman. This is just a simplified version to help others get
and hopefully someone else will be able to add onto this and make it better because this
my first attempt at tabbing a song.
intro:
either have one guitar do strum this:
|----|
|----|
|--2-|
|--2-|
|--0-|
|----|
while a second comes in with this:
 
 |-----------------------|
 |-----------------------|
 |-0-(x8)----------------| (x2)
 |--------4-(x8)--2-(x16)|
 |-----------------------|
 |-----------------------|

or combine them like this:
 
 |------------------------|
 |------------------------|
 |-0-(x8)--0--------------|
 |-2-------4-(x8)--2-(x16)|
 |-0-------0-------0------|
 |------------------------|

the other guitar riff in the intro is:
 
 |---------------------|
 |-8----8--------------|
 |--9-----7---9--------| (x2)
 |---------------10-9--|
 |---------------------|
 |---------------------|

verse: (1st 2 lines palm-muted)
I could of s[Am]worn that I saw you k[C]nee bent on the b[Em]edside,[Em]
Arms st[Am]retched like a kite that t[C]ime will eventually [Em]grow.[Em]
 
 |---------------------|
 |-------------------1-|
 |---------------5-4-2-|
 |---------------5-4-2-|
 |---------------3-2-0-|
 |---------------------|I'm so sure of it

A[Am]nd I've got a r[C]eason, too l[Em]ong, for so[Em]ngs
That t[Am]ells why your legs and a[C]rms are actually [Em]able.[Em]
chorus:
Cause I confide in wolves at night.
 
 |-----------------------------------------0---------------|
 |---------------3-3----3-3--1-1-1-1-1-----0---------------|
 |---------------0-0----2-2--2-2-2-2-2-----0---------------|
 |---------------2-2----0-0--2-2-2-2-2-----2-(x about 16)--|
 |---------------3-3----2-2--0-0-0-0-0-----2---------------|
 |-----------------------------------------0---------------|

well have you seen my baby girl? she's lonely.
Am, C, Em, Em (x2)
( Tab from: http://www.guitartabs.cc/tabs/m/manchester_orchestra/wolves_at_night_tab.html )
verse 2: (last 2 lines palm-muted)
 
 |----------------------------------------------------|
 |----------------------------------------------------|
 |-----------14----------5----------------9-----------|
 |-----------14-(x8)-----5-(x8)-----------9-(x16)-----|
 |-----------12----------3----------------7-----------|
 |----------------------------------------------------|

I've got to crucify myself if I am gonna believe you
I've got to p[Am]romise that Iíll finish all the t[C]hings I said I'd do to [Em]begin [Em]with too
I've got to m[Am]ake my b[C]ed if I am gonna lay w[Em]ith you[Em]
Cause a dis[Am]aster's a disaster no m[C]atter what Christian language you d[Em]rag it[Em] through
chorus:
Cause I confide in wolves at night.
 
 |-----------------------------------------0---------------|
 |---------------3-3----3-3--1-1-1-1-1-----0---------------|
 |---------------0-0----2-2--2-2-2-2-2-----0---------------|
 |---------------2-2----0-0--2-2-2-2-2-----2-(x about 20)--|
 |---------------3-3----2-2--0-0-0-0-0-----2---------------|
 |-----------------------------------------0---------------|

well have you seen my baby girl? she's lonely, so lonely.
 
 |------------1-1-1-1-1-1-1-1-1------------------------|
 |------------1-1-1-1-1-1-1-1-1-----1-1-1-1------------|
 |------------2-2-2-2-2-2-2-2-2-----2-2-2-2------------|
 |------------3-3-3-3-3-3-3-3-3-----2-2-2-2------------|
 |----------------------------------0-0-0-0------------|
 |-----------------------------------------------------|

cause i confide in wolves at night
 
 |-----------------------------------------0---------------|
 -------------3-3----3-3----1-1-1-1-1------0---------------|
 |------------0-0----2-2----2-2-2-2-2------0---------------|
 |------------2-2----0-0----2-2-2-2-2------2-(x about 20)--|
 |------------3-3----2-2----0-0-0-0-0------2---------------|
 |-----------------------------------------0---------------|

i'm like a virgin losin' a child, so lonely, so lonely
Am, C, Em, Em (x2)
[C]I swear I did what I could for your ri[Am]ghts,
[Am]You swear you did what you could for my e[Em]yes
[Em]And I'll try nothing, try so[F]mething, try anyt[G]hing
[C]I swear I did what I could for your righ[Am]ts,
[Am]You swear you did what you could for my ey[Em]es
[Em]And I'll try something, for not[F]hing, for sooo[G]ome-
[C]thing. [Am] So[Em]mething[F] [G]
[C]I swear I did what I could for your rig[Am]hts,
[Am]You swear you did what you could for my ey[Em]es
[Em]And I'll try something, try n[F]othing, try an[G]ything.[C]

Important: The song above is NOT stored on the Chordie server. The original song is hosted at www.guitartabs.cc. Chordie works as a search engine and provides on-the-fly formatting. Chordie does not index songs against artists'/composers' will. To remove this song please click here.

Text color:
Chord color:
Chord grids: 
Font size:    
Page size: 

Am C Em F G
Rate #1 of 3 versions

Login - add to songbook

SHARE PAGE  




You need to log in to post comments