Guitar Tabs, Chords and Lyrics
Server problems seems to be fixed. Chordie has been experiencing problems with songs disappearing. These issues now seems to be fixed, but still verifying the fix. If you find anything strange, please email admin@chordie.com.


To China With Love  Mando Diao

 
 -------------------------------------------------------------------------------

TO CHINA WITH LOVE - MANDO DIAO
 
 -------------------------------------------------------------------------------

Tabbed by:Se˝or
Email:sverigerocks@hotmail.com
Tuning:standard
intro:
Guitar: Bass:
 
 e|-3/5----------------------|------------------------------------------------|
 B|-3/5----------------------|------------------------------------------------|
 G|----------7\5------7\5----|------------------------------------------------|
 D|----------7\5------7\5----|-----7---------5--------------------------------|
 A|--------------------------|---------5-6-7----------------------------------|
 E|--------------------------|-5-5---5----------------------------------------|

Get [Am]on the train cause I'm [F7]tired of you, boy
You can [Dm7]come back when you're dressed in [Am]blue
You[Am] won't get a penny of u[F7]sing me
I'm gonna [Dm7]send you home and hit you on S[Am]unday
I'm gonna [F7]send you home and [Dm7]hit you on S[Am]unday
[Am]Don't look so small, I'm not [F7]bigger than you
but I've got [Dm7]blues enough to smash your b[Am]ones
[Am]I've lit up my life with those [F7]matches I've got
from those who [Dm7]stood by me when I was in [Am]pain, boy
from those who [F7]stood by me when [Dm7]I was in pain, b[Am]oy[A]
You're too [Dm]near me nasty b[Am]oy-girl
It's pretty [G]bad that you're still aro[Am]und
I'm gonna l[Dm]augh when you're down and [Am]out, boy
I'm gonna l[B]augh when you're on that [E]lonesome ride
Back [F]all the way to [C]China in a pol[E]ice car from Jap[Am]an, oh yeah
[F]Sitting in the backseat [C]crying
Where┤s your [E]pride? Where┤s your p[Am]ride?
[Am]Getting my feet all d[F7]rained in mud,
I'm gonna c[Dm7]lean them when I'm done with [Am]you
I [Am]don't give a damn if your [F7]filthy too
I've got enough [Dm7]soup for my whole gener[Am]ation
I've got e[F7]nough soup for my w[Dm7]hole genera[Am]tion[A]
Your too [Dm]near me nasty b[Am]oy-girl.
It's pretty [G]bad that you're round my [Am]hood
I'm gonna l[Dm]augh when you're down and o[Am]ut boy
I'm gonna l[B]augh when you're on that [E]lonesome ride
But [F]all the way to [C]China in a pol[E]ice car from Jap[Am]an, oh yeah
[F]Sitting in the backseat [C]crying
Where┤s your [E]pride? Where┤s your p[Am]ride?
D[F]rop your blood in [C]China,
You will get [E]rid of that mighty s[Am]tone, oh yeah
[F]People told me you were a [C]rich man now
Where┤s your [E]pride? Where┤s your p[Am]ride?
solo:
Guitar 1:
 
 e|---------------------------------------------------------------------------|
 B|-----------------------------------------10----12h13p12---12h13p12---------|
 G|----------------------------------9-9h10----10----------9----------9-------|
 D|-----7---9h10p9---9h10p9---9h10p9------------------------------------------|
 A|-7/8---8--------7--------7-------------------------------------------------|
 E|---------------------------------------------------------------------------|
 e|----------12-12121212121212------------------------------------------------|
 B|-12h13p12----12121212121212------------------------------------------------|
 G|---------------------------------------------------------------------------|
 D|---------------------------------------------------------------------------|
 A|---------------------------------------------------------------------------|
 E|---------------------------------------------------------------------------|

Guitar 2: play chorus during the solo and for the rest of the song
| / slide up
| \ slide down
| h hammer-on
| p pull-off
| ~ vibrato
| + harmonic
| x Mute note
===============================================================================

Important: The song above is NOT stored on the Chordie server. The original song is hosted at www.guitartabs.cc. Chordie works as a search engine and provides on-the-fly formatting. Chordie does not index songs against artists'/composers' will. To remove this song please click here.

Text color:
Chord color:
Chord grids: 
Font size:    
Page size: 

A Am B C Dm Dm7 E F F7 G
Rate #1 of 3 versions

Login - add to songbook

SHARE PAGE  



You need to log in to post comments