Guitar Tabs, Chords and Lyrics
Update 25:10. 13:00. Site is back up running again. Songbooks are recovered. Woring on getting search back up..


I Need You  Marc Anthony

MaRC aNTHoNY - i NeeD You - TaBBeD BY - KaRaN SaNaS
NoViCe
No CaPo
STaNDaRD TuNiNG
You'll Need two Guitar's read on you'll know why...
Chords Used
Cadd9 : x32033
G : 320033
Em : x22000
F : 133211
C : x32010
Am : xx2210
Intro:
[Cadd9] [G] [Em] [F]  
[Cadd9] [G] [Em] [F]  
Guitar 2:
 
 e|---------------------------------------------------------|
 B|---------------------------------------------------------|
 G|-7/10--10-10-10-9-7-9----0----7h9--7---------------------|
 D|---------------------------10----------4/5-7-9-9-9/10-10-|
 A|---------------------------------------------------------|
 E|---------------------------------------------------------|

From the day that I me[C]t you girl,
I knew that your lov[G]e would be,
Everything th[Em]at I ever wanted in my [F]life.
From the moment you [C]spoke my name,
I new every[G]thing had changed,
Because of [Em]you I felt my life would be [F]complete.
(Chorus)
Oh baby,
[F]I ne[G]ed y[C]ou
[C]For the rest of my life girl
[F]I ne[G]ed y[C]ou
[C]To make everything right girl
[F]I l[G]ove [Am]you
[Am]And Iíll never deny that
[F]I ne[G]ed y[C]ou
Gui[C]tar 2:[G] [Em] [F]
 
 e|---------------------------------------------------------|
 B|---------------------------------------------------------|
 G|-7/10--10-10-10-9-7-9----0-------------------------------|
 D|---------------------------7--9-9------------------------|
 A|---------------------------------------------------------|
 E|---------------------------------------------------------|

Nothing matters but y[C]ou my love,
And only Go[G]d above,
Could be the [Em]one to know exactly how I [F]feel.
I could die in your a[C]rms right now,
Knowing that [G]you somehow,
Would take my [Em]soul and keep it deep inside your [F]heart.
(Chorus)
Oh baby,
[F]I ne[G]ed y[C]ou
[C]For the rest of my life girl
[F]I ne[G]ed y[C]ou
[C]To make everything right girl
[F]I l[G]ove[Am] you
[Am]And Iíll never deny that
[F]I ne[G]ed y[C]ou
(Bridge)
[F]Girl your love to me feels just like [C]magic,
When you smile you have total contr[F]ol,
You have power like nothing Iíve f[C]elt before.
[F] Iíve let all of my feelings [Am]shown,
[Am]Cuz I want you to know that...
[F]I ne[G]ed y[C]ou
(Interlude)
[Cadd9] [G] [Em] [F]  
[Cadd9] [G] [Em] [F]  
Guitar 2:
 
 e|---------------------------------------------------------|
 B|---------------------------------------------------------|
 G|-7/10--10-10-10-9-7-9----0----7h9----7-------------------|
 D|---------------------------10----------4/5-7-9-9-9/10-10-|
 A|---------------------------------------------------------|
 E|---------------------------------------------------------|

[F]I ne[G]ed y[C]ou, for the rest of my life girl
[F]I ne[G]ed y[C]ou, say that youíll be my wife oh
[F]I lo[G]ve y[Am]ou, Wont you marry me marry me
[F]I ne[G]ed y[C]ou
Oh I[F] nee[G]d yo[C]u,
[C]For the rest of my life
Oh I[F] nee[G]d yo[C]u
[C]Wont you marry me marry me
[F]I lo[G]ve [Am]you, I really need ya baby (I really need nobody but you)
[F]I ne[G]ed y[C]ou
Follow this for the whole of the next verse
as 1 X X & X X 4
[F] [G] [C] 
 
 e|------1---------------3---------------0--------------------|
 B|------1---------------3---------------1--------------------|
 G|------2---------------0---------------0--------------------|
 D|------3---------------0---------------2--------------------|
 A|------3---------------2---------------3--------------------|
 E|------1---------------3---------------x--------------------|

Girl I really need, I need you girl I really need you need you
Oohhh baby I love you
I need you, Girl I really need ya need ya Ö oh babyÖ
Wont you marry me
Wont you marry me marry me
I love you.. oohh ..
I need you...

Important: The song above is NOT stored on the Chordie server. The original song is hosted at www.guitartabs.cc. Chordie works as a search engine and provides on-the-fly formatting. Chordie does not index songs against artists'/composers' will. To remove this song please click here.

Text color:
Chord color:
Chord grids: 
Font size:    
Page size: 

Am C Cadd9 Em F G
Rate #1 of 6 versions

Jango Player

Login - add to songbook

SHARE PAGE  



You need to log in to post comments