Guitar Tabs, Chords and Lyrics
Major upgrade!! After one year development the new version of Chordie is now online! Please give feedback.


Antichrist Superstar   Marilyn Manson

 
 -----------------------------------------

 


 


 intro


 

 
 G|-------|
 D|-------|

 


 A|--2-2--| (x8)


 

 
 E|-------|

 


 


 chorus


 

 
 G|-----------|
 D|-----------|
 A|-2-2-5-2-0-| [x3]
 E|-----------|
 G|---------------|
 D|---------3-2-0-|
 A|-2-2-5-2-------|
 E|---------------|

 


 


 verse


 

 
 G|---------|
 D|---------|

 


 A|-2-2-5-2-| (x many times)


 

 
 E|---------|

 


 


 [#1]  

 
 G|----------------------|
 D|----------------------|
 A|-5--4-3-2-2-5-2-2-5-2-|[x3]
 E|----------------------|

 


 


 [#2]  

 
 G|----------|
 D|----------|
 A|-5--4-3-2-|
 E|----------|

 


 


 [#3]  

 
 G|-------------|
 D|-------------|
 A|-2-5-2-3-2-0-|[x4]
 E|-------------|


Important: The song above is NOT stored on the Chordie server. The original song is hosted at www.guitartabs.cc. Chordie works as a search engine and provides on-the-fly formatting. Chordie does not index songs against artists'/composers' will. To remove this song please click here.

This song is displayed as text-only. Transposing and tuning is only available for chordpro-songs.
Rate #1 of 3 versions

Login - add to songbook

SHARE PAGE  



You need to log in to post comments