Guitar Tabs, Chords and Lyrics
Update 25:10. 13:00. Site is back up running again. Songbooks are recovered. Woring on getting search back up..


Through With You  Maroon 5

by maroon 5
dis is my 1st tab.....please rate, im xure its correct...hehehe..
Intro:
 
 --------------------------------------------------|
 --------------------------------------------------|
 --------------------------------------------------|
 --------------------------------------------------|
 ------------4----------4-----4h6-4--------4-------|
 -64h6-----6----6-----6-----------4h6----61h4-1--| (2x)

Stanza 1:
Bb-Bb (pause)
Can you see me
Floating above your head
As you lay in[Eb] bed[C#]
Thinking about e[Ab]verything[G#]
Bb-Bb (pause)
That you did not do
Cause saying I love you
Has nothing [Eb]to do with [C#]meaning it[Ab-G#]
(repeat intro)
Stanza 2:
Bb-Bb (pause)
And I don't trust you
Cause every time you're here
Your intentio[Eb]ns are unclear[C#]
Ab G# Bb-Bb (pause)
I spend every hour waiting for a phone call
That I know will never come
I used to think[Eb] you were the one[C#]
Now I'm sick of[Ab] thinking anything at [G#]all
Chorus:
[Bb]You ain't ever coming back to me
[C#]That's not how things were supposed to be
[Eb]You take my hand just to give it back
[F]No other lover has ever done that
Stanza 3:
Do you remember[Bb]
The way we used to melt
Do you remember how[Eb] it f[C#]elt[Ab] [G#]
When I touched you[Bb]
Oh cause I remember[Eb] very[C#] well[Ab] [G#]
Bridge:
And how long has[Bb] it been
Since someone you[C#] let in
Has give[Eb]n what I gave to you[F]
And at night [Bb]when you sleep
Do you dream I [C#]would be there
J[Eb]ust for a minute or two do yo[F]u?
( Tab from: http://www.guitartabs.cc/tabs/m/maroon_5/through_with_you_tab_ver_2.html )
Chorus:
[Bb]You ain't ever coming back to me
[C#]That's not how things were supposed to be
[Eb]You take my hand just to give it back
[F]No other lover has ever done that
[Bb]Heartache heartache I just have so much
[C#]A simple love with a complex touch
[Eb]There is nothing you can say or do
I c[F#]alled to let[F] you know I'[Eb]m through [C#]with you[Bb]
Adlib:
 
 ------------------------------------------------------------|
 ------------------------------------------------------------|
 ------------------------------------------------------------|
 -------------------------------6----------------------------|
 ------------4h5-4h5-6h7-6---6-4-6-4------------4---4--------|
 -4h6-4h6--------------------------------6-44h6--3----------|
 -------------------------------------------------------------------------|
 -------------------------------------------------------------------------|
 -------------------------------------------------------------------------|
 -------------------------------6-----------------------------------------|
 ------------4h5-4h5-6h7-6---6-4-6-4-------------4---4---4----------------|
 -4h6-4h6--------------------------------6-4---4h6---4---3---1------------|
 -------------------------------------------------------------------------------|
 -------------------------------------------------------------------------------|
 -------------------------------------------------------------------------------|
 -------------------------------------------------------------------------------|
 -8h9-6h8-4h6-3h4---------------------------------------------------------------|
 -------------------------------------------------------------------------------|

Chorus:
[Bb]You ain't ever coming back to me
[C#]That's not how things were supposed to be
[Eb]You take my hand just to give it back
[F]No other lover has ever done that
[Bb]Heartache heartache I just have so much
[C#]A simple love with a complex touch
[Eb]There is nothing you can say or do
I c[F#]alled to let[F] you know I'[Eb]m through [C#]with you[Bb]
The last line of d chorus is accompanied wd bass doing dis:
(I called to let you know Im through with you)
 
 ----------------------------------------------------------|
 ----------------------------------------------------------|
 --9-6-8-4-6-3-4-------------------------------------------|
 --------------------4-6-----------------------------------|


Important: The song above is NOT stored on the Chordie server. The original song is hosted at www.guitartabs.cc. Chordie works as a search engine and provides on-the-fly formatting. Chordie does not index songs against artists'/composers' will. To remove this song please click here.

Text color:
Chord color:
Chord grids: 
Font size:    
Page size: 

Ab Bb C# Eb F F# G#
Rate #2 of 13 versions

Login - add to songbook

SHARE PAGE  




You need to log in to post comments