Guitar Tabs, Chords and Lyrics
Update 25:10. 13:00. Site is back up running again. Songbooks are recovered. Woring on getting search back up..


Apparitions  Matthew Good Band

Tabbed by Chris Iliou
My first tab. Woohoo! I wanted to learn this song but I didn't think any of the
tabs out there were accurate or indepth. So, 6 hours later...(man I'm hungry)...
here is how I think it is played. Any comments, ciliou@cogeco.ca.
*I have to give credit to Adam Bishop, Spencer Edwards and John Metzler.
Their tab gave me a good starting point, helped me with chord names, and shaved a few
hours off my completion time. Thanks guys.*
Verse:
0 0 4 9
0 0 4 9
8 8 4 9
[9] [9] [6] [11]  
[9]7 [7]x [6]4 [11] 9
bsus4 E5? G#m C#m
Chorus:
0 2 0 0 4 7 0 0
0 2 0 0 4 7 0 0
8 3 6 1 4 8 1 4
[9] [4] [7] [2] [6] [9] [2] [5] 
[9]7 [4]2 [7]5 [2]0 [6]4 [9]7 [2]0 [5]3
[bsus4] [F#] [Asus2] [E] [G#m] [B] [E] [G6] 
Solo:
x x x 0 0
x x x 0 0
x 8 x 1 4
4 8 9 2 5
[4]2 [6]x [9]7 [2]0 [5]3
[F#5] [Eb5] [B5] [E] [G6]  
Verse 1 is acoustic only
Verse 2 is acoustic with an electric getting feedback
Verse 3:
bsus4(Acoustic and clean electric strumming)
Clean electric
^ ^ ^ ^ ^ ^ ^ ^
 
 |---------------------0-----------------------0---|
 |---------0-----------------------------0---------|
 |---------------8-----------------8---------------|
 |---9---------------------------------------------|
 |-------------------------------------------------|
 |-------------------------------------------------| X2

E5?
^ ^ ^ ^ ^ ^ ^ ^
 
 |---------------------0-----------------------0---|
 |---------0-----------------------------0---------|
 |---------------8-----------------8---------------|
 |---6---------------------------------------------|
 |-------------------------------------------------|
 |-------------------------------------------------| X2

[G#m] ^ ^ ^ ^ ^ ^ ^ ^
 
 |---------------------0-----------------------0---|
 |---------0-----------------------------0---------|
 |---------------8-----------------8---------------|
 |---9---------------------------------------------|
 |-------------------------------------------------|
 |-------------------------------------------------| X2

[C#m] ^ ^ ^ ^ ^ ^ ^ ^
 
 |---------------------0-----------------------0---|
 |---------0-----------------------------0---------|
 |---------------8-----------------8---------------|
 |---6---------------------------------------------|
 |-------------------------------------------------|
 |-------------------------------------------------|

E5?
^ ^ ^ ^ ^ ^ ^ ^
 
 |---------------------0-----------------------0---|
 |---------0-----------------------------0---------|
 |---------------8-----------------8---------------|
 |---9---------------------------------------------|
 |-------------------------------------------------|
 |-------------------------------------------------|

[C#m] ^ ^ ^ ^ ^ ^ ^ ^
 
 |---------------------0-----------------------0---|
 |---------0-----------------------------0---------|
 |---------------8-----------------8---------------|
 |---6---------------------------------------------|
 |-------------------------------------------------|
 |-------------------------------------------------|

E5?
^ ^ ^ ^ ^ ^ ^ ^
 
 |---------------------0-----------------------0---|
 |---------0-----------------------------0---------|
 |---------------8-----------------8---------------|
 |---9---------------------------------------------|
 |-------------------------------------------------|
 |-------------------------------------------------|

E5?
^ ^ ^ ^ ^ ^ ^ ^
 
 |--------------------0----------------------------|
 |---------------0-----------------------0---------|
 |---------8-----------------------8---------------|
 |-------------------------------------------------|
 |-------------------------------------------------|
 |-------------------------------------------------|

Chorus has mildly distorted electric strumming:
bsus4, F#, Asus2, E
Dirty electric strums power chords, let feedback
2nd half of chorus
Mildly distorted electric strumming
Clean electric
[G#m] ^ ^ ^ [B]^ ^ ^ ^ ^
 
 |---------2--------2--------2--------2--------2---|
 |------0--------0--------0--------0--------0------|
 |---1--------1--------1--------1--------1---------|
 |-------------------------------------------------|
 |-------------------------------------------------|
 |-------------------------------------------------|

[E]^ ^ ^ ^ ^ ^ ^ ^
 
 |------2--------2--------2--------2--------2------|
 |---0--------0--------0--------0--------0---------|
 |1--------1--------1--------1--------1--------0---|
 |-------------------------------------------------|
 |-------------------------------------------------|
 |-------------------------------------------------|

[G#m] ^ ^ ^ [B]^ ^ ^ ^ ^
 
 |---------2--------2--------2--------2--------2---|
 |------0--------0--------0--------0--------0------|
 |---1--------1--------1--------1--------1---------|
 |-------------------------------------------------|
 |-------------------------------------------------|
 |-------------------------------------------------|

[E]^ ^ ^ [G6] ^ ^ ^ ^ ^
 
 |------2--------2-----3---------------------------|
 |---0--------0------------------------------------|
 |1--------1--------1------------------------------|
 |-------------------------------------------------|
 |-------------------------------------------------|
 |-------------------------------------------------|

Verse 4
Acoustic and clean electric strumming
Clean electric
[bsus4] ^ ^ ^ ^ ^ ^ ^ ^
 
 |---------------------0---------------------------|
 |---------0--------0-----------------0--------0---|
 |------8--------8-----------------8--------8------|
 |---9--------9-----------------9--------9---------|
 |-------------------------------------------------|
 |-------------------------------------------------| X2

E5?
^ ^ ^ ^ ^ ^ ^ ^
 
 |---------------------0---------------------------|
 |---------0--------0-----------------0--------0---|
 |------8--------8-----------------8--------8------|
 |---6--------6-----------------6--------6---------|
 |-------------------------------------------------|
 |-------------------------------------------------| X2

[G#m] ^ ^ ^ ^ ^ ^ ^ ^
 
 |---------------------0---------------------------|
 |---------0--------0-----------------0--------0---|
 |------8--------8-----------------8--------8------|
 |---9--------9-----------------9--------9---------|
 |-------------------------------------------------|
 |-------------------------------------------------| X2

[C#m] ^ ^ ^ ^ ^ ^ ^ ^
 
 |---------------------0---------------------------|
 |---------0--------0-----------------0--------0---|
 |------8--------8-----------------8--------8------|
 |---6--------6-----------------6--------6---------|
 |-------------------------------------------------|
 |-------------------------------------------------|

E5?
^ ^ ^ ^ ^ ^ ^ ^
 
 |---------------------0---------------------------|
 |---------0--------0-----------------0--------0---|
 |------8--------8-----------------8--------8------|
 |---9--------9-----------------9--------9---------|
 |-------------------------------------------------|
 |-------------------------------------------------| X2

bsus4 (Only acoustic strumming)
^ ^ ^ ^ ^ ^ ^ ^
 
 |---------------------0---------------------------|
 |---------0--------0-----------------0--------0---|
 |------8--------8-----------------8--------8------|
 |---9--------9-----------------9--------9---------|
 |-------------------------------------------------|
 |-------------------------------------------------| 

|Mildly distorted electric (Hold note) |
| ^ ^ ^ ^ ^ ^ ^ ^ |
 
 |-------------------------------------------------|
 |-------------------------------------------------|
 |-------------------------------------------------|
 |---1---------------------------------------------|
 |-------------------------------------------------|
 |-------------------------------------------------|

[bsus4] ^ ^ ^ ^ ^ ^ ^ ^
 
 |---------------------0---------------------------|
 |---------0--------0-----------------0--------0---|
 |------8--------8-----------------8--------8------|
 |---9--------9-----------------9--------9---------|
 |-------------------------------------------------|
 |-------------------------------------------------|

| |
| ^ ^ ^ ^ ^ ^ ^ ^ |
 
 |-------------------------------------------------|
 |-------------------------------------------------|
 |-------------------------------------------------|
 |--(1)--------------------------------------------|
 |-------------------------------------------------|
 |-------------------------------------------------|

E5?
^ ^ ^ ^ ^ ^ ^ ^
 
 |---------------------0---------------------------|
 |---------0--------0-----------------0--------0---|
 |------8--------8-----------------8--------8------|
 |---6--------6-----------------6--------6---------|
 |-------------------------------------------------|
 |-------------------------------------------------|

| |
| ^ ^ ^ ^ ^ ^ ^ ^ |
 
 |-------------------------------------------------|
 |-------------------------------------------------|
 |-------------------------------------------------|
 |-------------------------------------------------|
 |---2---------------------------------------------|
 |-------------------------------------------------|

E5?
^ ^ ^ ^ ^ ^ ^ ^
 
 |---------------------0---------------------------|
 |---------0--------0-----------------0--------0---|
 |------8--------8-----------------8--------8------|
 |---6--------6-----------------6--------6---------|
 |-------------------------------------------------|
 |-------------------------------------------------|

| |
| ^ ^ ^ ^ ^ ^ ^ ^ |
 
 |-------------------------------------------------|
 |-------------------------------------------------|
 |-------------------------------------------------|
 |-------------------------------------------------|
 |--(2)---------------------/4---------------------|
 |-------------------------------------------------|

[G#m] ^ ^ ^ ^ ^ ^ ^ ^
 
 |---------------------0---------------------------|
 |---------0--------0-----------------0--------0---|
 |------8--------8-----------------8--------8------|
 |---9--------9-----------------9--------9---------|
 |-------------------------------------------------|
 |-------------------------------------------------|

| |
| ^ ^ ^ ^ ^ ^ ^ ^ |
 
 |-------------------------------------------------|
 |-------------------------------------------------|
 |-------------------------------------------------|
 |-------------------------------------------------|
 |-/11---------------------------------------------|
 |-------------------------------------------------|

[G#m] ^ ^ ^ ^ ^ ^ ^ ^
 
 |---------------------0---------------------------|
 |---------0--------0-----------------0--------0---|
 |------8--------8-----------------8--------8------|
 |---9--------9-----------------9--------9---------|
 |-------------------------------------------------|
 |-------------------------------------------------|

| |
| ^ ^ ^ ^ ^ ^ ^ ^ |
 
 |-------------------------------------------------|
 |-------------------------------------------------|
 |-------------------------------------------------|
 |-------------------------------------------------|
 |-(11)--------------------------------------------|
 |-------------------------------------------------|

[C#m] ^ ^ ^ ^ ^ ^ ^ ^
 
 |---------------------0---------------------------|
 |---------0--------0-----------------0--------0---|
 |------8--------8-----------------8--------8------|
 |---6--------6-----------------6--------6---------|
 |-------------------------------------------------|
 |-------------------------------------------------|

| |
| ^ ^ ^ ^ ^ ^ ^ ^ |
 
 |-------------------------------------------------|
 |-------------------------------------------------|
 |-------------------------------------------------|
 |-------------------------------------------------|
 |-/14----------------------------------\7---------|
 |-------------------------------------------------|

E5?
^ ^ ^ ^ ^ ^ ^ ^
 
 |---------------------0---------------------------|
 |---------0--------0-----------------0--------0---|
 |------8--------8-----------------8--------8------|
 |---9--------9-----------------9--------9---------|
 |-------------------------------------------------|
 |-------------------------------------------------|

| |
| ^ ^ ^ ^ ^ ^ ^ ^ |
 
 |-------------------------------------------------|
 |-------------------------------------------------|
 |-------------------------------------------------|
 |-------------------------------------------------|
 |---6---------------------------------------------|
 |-------------------------------------------------|

[C#m] ^ ^ ^ ^ ^ ^ ^ ^
 
 |---------------------0---------------------------|
 |---------0--------0-----------------0--------0---|
 |------8--------8-----------------8--------8------|
 |---6--------6-----------------6--------6---------|
 |-------------------------------------------------|
 |-------------------------------------------------|

| |
| ^ ^ ^ ^ ^ ^ ^ ^ |
 
 |-------------------------------------------------|
 |-------------------------------------------------|
 |-------------------------------------------------|
 |-------------------------------------------------|
 |-/14---------------------------------\11---/16---|
 |-------------------------------------------------|

E5?
^ ^ ^ ^ ^ ^ ^ ^
 
 |---------------------0---------------------------|
 |---------0--------0-----------------0--------0---|
 |------8--------8-----------------8--------8------|
 |---9--------9-----------------9--------9---------|
 |-------------------------------------------------|
 |-------------------------------------------------|

| |
| ^ ^ ^ ^ ^ ^ ^ ^ |
 
 |-------------------------------------------------|
 |-------------------------------------------------|
 |-------------------------------------------------|
 |-------------------------------------------------|
 |-(16)--------------------------------------------|
 |-------------------------------------------------|

E5?
^ ^ ^ ^ ^ ^ ^ ^
 
 |---------------------0---------------------------|
 |---------0--------0-----------------0--------0---|
 |------8--------8-----------------8--------8------|
 |---9--------9-----------------9--------9---------|
 |-------------------------------------------------|
 |-------------------------------------------------|

| |
| ^ ^ ^ ^ ^ ^ ^ ^ |
 
 |-------------------------------------------------|
 |-------------------------------------------------|
 |-------------------------------------------------|
 |-------------------------------------------------|
 |-/18---------------------------------------------|
 |-------------------------------------------------|

Solo (Heavy distortion)
[F#5] ^ ^ ^ [Eb5] ^ ^ ^ ^ ^
 
 |-------------------------------------------------|
 |---------------2-----4-----------4b-5r-4---------|
 |---------3-----------------------------------2---|
 |---4---------------------------------------------|
 |-------------------------------------------------|
 |-------------------------------------------------|

[B5] ^ ^ ^ ^ ^ ^ ^ ^
 
 |-------------------------------------------------|
 |---------------4-----3-----------5b-6r-5-----3---|
 |---4---------------------------------------------|
 |---------4---------------------------------------|
 |-------------------------------------------------|
 |-------------------------------------------------|

[F#5] ^ ^ ^ [Eb5] ^ ^ ^ ^ ^
 
 |-------------------------------------------------|
 |---------------2-----4-----------4b-5r-4---------|
 |---------3-----------------------------------2---|
 |---4---------------------------------------------|
 |-------------------------------------------------|
 |-------------------------------------------------|

[B5] ^ ^ ^ ^ ^ ^ ^ ^
 
 |-------------------------------------------------|
 |---------------4-----3-----------5b-6r-5b-6r-5b-6|
 |---4---------------------------------------------|
 |---------4---------------------------------------|
 |-------------------------------------------------|
 |-------------------------------------------------|

[F#5] ^ ^ ^ [Eb5] ^ ^ ^ ^ ^
 
 |-------------------------------------------------|
 |---------------2-----4-----------4b-5r-4---------|
 |---------3-----------------------------------2---|
 |---4---------------------------------------------|
 |-------------------------------------------------|
 |-------------------------------------------------|

[B5] ^ ^ ^ ^ ^ ^ ^ ^
 
 |-------------------------------------------------|
 |---------------4-----3-----------5b-6r-5-----3---|
 |---4---------------------------------------------|
 |---------4---------------------------------------|
 |-------------------------------------------------|
 |-------------------------------------------------|

[F#5] ^ ^ ^ [Eb5] ^ ^ ^ ^ ^
 
 |-------------------------------------------------|
 |---------------2-----4-----------------4---------|
 |---------3-----------------2----------------2h4p2|
 |---4-----------------------------4---------------|
 |-------------------------------------------------|
 |-------------------------------------------------|

[E]^ ^ ^ ^ ^ ^ ^ ^
 
 |-------------------------------------------------|
 |---------------------3---------------------------|
 |---1-----------------0---------------------------|
 |-------------------------------------------------|
 |-------------------------------------------------|
 |-------------------------------------------------|

The last chorus has something hitting a high E and B.
Could be a guitar or piano or keyboard. Not sure.

Important: The song above is NOT stored on the Chordie server. The original song is hosted at www.guitartabs.cc. Chordie works as a search engine and provides on-the-fly formatting. Chordie does not index songs against artists'/composers' will. To remove this song please click here.

Text color:
Chord color:
Chord grids: 
Font size:    
Page size: 

Asus2 B B5 C#m E Eb5 F# F#5 G#m G6
Rate #0 of 12 versions

Jango Player

Login - add to songbook

SHARE PAGE  



You need to log in to post comments