Guitar Tabs, Chords and Lyrics
Update 25:10. 13:00. Site is back up running again. Songbooks are recovered. Woring on getting search back up..


Nothing  McFly

(from second album, 'Wonderland')
Tabbed by Fiona McAuley, Belfast. (fiona1099@hotmail.com)
I LOVE this song!!
Standard Tuning.
LEAD
[D] ^
 
 e-10-10-10 ---------------|
 B-10-10-10 12-10-8-7--7-7-|
 G-11-11-11 (let ring) 12-11-9-7--7-7-| these intro riffs
 D-12-12-12 12-11-9-7--7-7-| are played simultaneously
 A-12-12-12 ---------------| at theend of each line
 E-10-10-10 ---------------| in every verse !

RHYTHM
D ^
 
 e--2-2-2------------0-3-0-3-2-2--|
 B--3-3-3------------0-3-0-3-3-3--|
 G--2-2-2-------------------------|
 D--------------------------------|
 A--------------------------------|
 E--------------------------------|

______________________________________________________________
[D]Everything she says to me means [G]nothin[D]g. (Intro Riff)
[D]Even words of sympathy mean [A]nothi[D]ng. ''
[D]I'm feeling down and I hate the sound of [G]nothi[D]ng. ''
[D]What's the point in hanging 'round for [A]nothi[D]ng? ''
-CHORUS-
 
 D------->Bm D

And I can't remember falling in love with you
(play this on "you")
 
 e-------------------------|
 B-------------------------|
 G-------------------------| (notes on the D string are
 D--(4---5-5-s/-7-7--7-7---|- optional - they aren't played
 A---5---7-7-s/-9-9--9-9---| in the song)
 E-------------------------|

This is a[G]gony, and [E]you know you're putting me [A]through
(play this on "through")
 
 e-----------------|
 B-----------------|
 G--7-7---7---9-9--|
 D---7-7h9-7h9-7---|
 A-----------------|
 E-----------------|

This [G]mis-[A]er-[Bm]y, taking every [G]mem-[A]or-[F#]y
Just tell me why this [G]mis-[A]er-[D]y won't go a[G]way
How can we ca[Gm]rry on this way?
(Intro riffs x 2)
[D]I find it hard to hold a convers[G]atio[D]n
[D]And being with her's just an aggriv[A]atio[D]n
[D]I could stay but I haven't got the p[G]atien[D]ce
[D]I'm sick of her pathetic explan[A]atio[D]ns
-REPEAT CHORUS-
(play this riff after "way")
 
 e-------------------------------------------------------------|
 B-15----15------15--15--15--15---15----15------15--15--15--15-|
 G----18----16-16--16--16--16--------18----14-14--14--14--14---| x2
 D-------------------------------------------------------------|
 A-------------------------------------------------------------|
 E-------------------------------------------------------------|
 -------------------------------|
 ----15--15--15--15--(let ring)-|
 2nd time --14--14--14--14---------------|
 add this -------------------------------|
 -------------------------------|
 -------------------------------|

(Finger-pick these chords)
[D]You'll never bring me [Gm]down, 'cause I'm so far ab[D]ove you
You think you're s[Gm]trong....[D]but you're nothing to me [Gm]now
And I hope you will be [D]happy....this time ar[Gm--Cm--D]ound
[D] [Gm] [D]  
 
 e----2----2----2---------0----0---3--------2----2---2-----|
 B---3--3---3----3-3-----3--3---3---3-3----3--3---3---3-3--|
 G--2----2---2----2-----3----3---3---3----2----2---2---2---|
 D-0-------------------5-----------------0-----------------|
 A---------------------------------------------------------|
 E---------------------------------------------------------|

[Gm]  
 
 e----0---0---3-----|
 B---3-3---3---3-3--|
 G--3---3---3---3---|
 D-5----------------|
 A------------------|
 E------------------|

[D] [Gm] [D]  
 
 E----2----2----2---------0----0---3--------2----2---2-----|
 B---3--3---3----3-3-----3--3---3---3-3----3--3---3---3-3--|
 G--2----2---2----2-----3----3---3---3----2----2---2---2---|
 D-0-------------------5-----------------0-----------------|
 A---------------------------------------------------------|
 E---------------------------------------------------------|

[G] [Gm]  
 
 e--3-3-3-3-3-3-3-3--3-3-3-3-3-3-3-3-|
 B--3-3-3-3-3-3-3-3--3-3-3-3-3-3-3-3-|
 G--4-4-4-4-4-4-4-4--3-3-3-3-3-3-3-3-|
 D--5-5-5-5-5-5-5-5--5-5-5-5-5-5-5-5-|
 A--5-5-5-5-5-5-5-5--5-5-5-5-5-5-5-5-|
 E--3-3-3-3-3-3-3-3--3-3-3-3-3-3-3-3-|

-LEAD-
 
 e--------------------------------------------------------|
 B--------------------------------------------------------|
 G--------------------------------------------------------|
 D-14b(16)-----------------------------------12--12h14-12-|
 A------------s/14-12----------------s/9s/10--------------|
 E--------------------12--10h12-10------------------------|
 e--------------------------------------------------------|
 B-----------------------------------------15-17b19r17-15-|
 G--------------------------------------------------------|
 D-s/16-16-16-16-16-16-16-16-16-16-16-16-16---------------|
 A--------------------------------------------------------|
 E--------------------------------------------------------|

______________________________________________________________
(Intro riffs x 4)
D----->Bm D
And I can't remember falling in love with you
(play this on "you")
 
 e-------------------------|
 B-------------------------|
 G-------------------------| (notes on the D string are
 D--(4---5-5-s/-7-7--7-7---|- optional - they aren't played
 A---5---7-7-s/-9-9--9-9---| in the song)
 E-------------------------|

This is [G]agony, do [E]you know you're putting me [A]through??
(play this on "through")
 
 e-----------------|
 B-----------------|
 G--7-7---7---9-9--|
 D---7-7h9-7h9-7---|
 A-----------------|

Ooh, this [G]mis-[A]er-[Bm]y, taking every [G]mem-[A]or-[F#]y
Just tell me why this [G]mis-[A]er-[D]y won't go [G]away
How can we c[Gm]arry on this w[D]ay? Yeah!!!!
Rhythm
 
 e-------------------------------------------------------------|
 B-15----15------15--15--15--15---15----15------15--15--15--15-|
 G----18----16-16--16--16--16--------18----14-14--14--14--14---| x2
 D-------------------------------------------------------------|
 A-------------------------------------------------------------|
 E-------------------------------------------------------------|
 -------------------------------|
 ----15--15--15--15--(let ring)-|
 2nd time --14--14--14--14---------------|
 add this -------------------------------|
 -------------------------------|
 -------------------------------|

Lead
 
 e----------------------------------------------------|
 B----------------------------------------------------|
 G----------------------------------------------------|
 D---7-9-9b11r9-7-7----7-9-9b11r9-7-9---7-6-----------|
 A-9-----------------9----------------------7-9p7-9-7-|
 E----------------------------------------------------|
 e---------------------------------------|
 B---------------------------------------|
 G-----7-9b(11)r-7-9b(11-slowly)r-9p7-7--|
 D-7-9-----------------------------------|
 A---------------------------------------|
 E---------------------------------------|

_______________________________________________________________________
(intro riff x 4 played under this, which is on a 3rd guitar:-)
 
 e--------------------------------------------------------------10-10----|
 B--------------------------------------------------10--10-10h12---------|
 G--------------------------7--9-9b(11)r9-7-7---9h11---------------------|
 D---------------7h9-7---7h9---------------------------------------------|
 A-----------7h9---------------------------------------------------------|
 E-10-10-10--------------------------------------------------------------|
 ------10------10------10------10---12b(14)-|
 -10h12---10h12---10h12---10h12-------------|
 -------------------------------------------|
 -------------------------------------------|
 -------------------------------------------|
 -------------------------------------------|

:>
________________________________________________________________________
P.S - This is D---->Bm, which is played at the start of each chorus
(D)-->(Bm)
 
 e-10-9--7--|

B-10-10-7--|
G-11-11-7--|
D-12-12-9--|
A-12-12-9--|
E-10-10-7--|

Important: The song above is NOT stored on the Chordie server. The original song is hosted at www.guitartabs.cc. Chordie works as a search engine and provides on-the-fly formatting. Chordie does not index songs against artists'/composers' will. To remove this song please click here.

Text color:
Chord color:
Chord grids: 
Font size:    
Page size: 

A Bm D E F# G Gm
Rate #1 of 8 versions

Jango Player

Login - add to songbook

SHARE PAGE  



You need to log in to post comments