Guitar Tabs, Chords and Lyrics
Major upgrade!! After one year development the new version of Chordie is now online! Please give feedback.


All Nightmare Long   Metallica

 
 e|------------------------------|
 b|------------------------------|
 g|------------------------------|x4
 d|----0--5-6-5-----0-5-------5--|
 a|-----------------------------6|
 D|-0------------0------3--0-----|

 


 


 distorted


 

 
 |--------------|
 |--------------|
 |--------------|x2
 |--------------|
 |-0----6-5--0-0|
 |-0----6-5--0-0|

 


 [+] [+]  


 

 
 |---------------------------------------------------------------|
 |---------------------------------------------------------------|
 |---------------------------------------------------------------|
 |---------------------------------------------------------------|
 |-0----6-5--0-0-0-------0----6-5--0-0--0---0-0--0---6-5--0---6-5|
 |-0----6-5--0-0-0-------0----6-5--0-0--0---0-0--0---6-5--0---6-5|

 


 [+] [+] [+] [+] [+] 


 

 
 |--------------------------------------|
 |--------------------------------------|
 |--------------------------------------|
 |--------------------------------------|
 |--------------------------------------|

 


 |000000000000000000000000002^2^3^3^4^4^|


 [++++++++++++++++++++++++++]  


 

 
 |-------------------------------|
 |-------------------------------|
 |-------------------------------|
 |-------------------------------|x4
 |-------------------------------|
 |-000-0-0-0-0-0-0-0-0-0-0-0-0-0-|

 


 [+++] [+] [+] [+] [+] [+] [+] [+] [+] [+] [+] [+] [+] [+]  


 Post-Chorus


 

 
 |----------------------------| |--------------------|
 |----------------------------| |--------------------|
 |----------------------------|x7 |--------------------|
 |----------------------------| |--------------------|
 |-----------1-1---1-1--------| |-----------1-1---1-1|
 |-000-0-0-0-1-1-0-1-1-222-333| |-000-0-0-0-1-1-0-1-1|

 


 [+++] [+] [+] [+] [+] [+++] [+++] [+++] [+] [+] [+] [+] 


 

 
 |--------------------|
 |--------------------|
 |--------------------|
 |--------------------|
 |--3h0--5h0--3h0--5h0|
 |--3h0--5h0--3h0--5h0|

 


 


 Pre-Chorus+Pre-verse part 1


 

 
 |------------------------------------------------------------|
 |------------------------------------------------------------|
 |------------------------------------------------------------|x2 1st time
 |---------------------------------------------7-7-7-5-5-/1010|x1 2nd time
 |-0--0-3-000000--0--0-3-000000--0--0-3-000000-5-5-5-3-3-/8-8-|
 |-0--0-3-000000--0--0-3-000000--0--0-3-000000----------------|

 


 [++++++] [++++++] [++++++] 


 Pre-chorus+Pre-verse part 2 play only on 1st time


 

 
 |----------------------------|-------------------|
 |----------------------------|-------------------|
 |----------------------------|-------------------|
 |-2---3---5--6--7-777-777-777|-771010101010101010|
 |-0---1---3--4--5-555-555-555|-558-8-8-8-8-8-8-8-|
 |----------------------------|-------------------|

 


 [+] [+++] [+++] [+++] [+++]  


 Verse


 

 
 |-----------------------------------------------------------|
 |-----------------------------------------------------------|
 |-----------------------------------------------------------|
 |--9tr---------------------------------2--------------------|
 |------8tr-7tr-5tr-2tr-----------2-3-5---5-3-3h5p3----------|
 |----------------------3333-2tr--------------------2tr------|

 


 [+] [+] [+] [+] [+] [+] [+] 


 

 
 |-------------------------------------------------------|
 |-------------------------------------------------------|
 |-------------------------------------------------------|
 |-------2-------4---------5---------4---------5---------|
 |-2-3-5---5-3-2-2let ring-3let ring-2let ring-3let ring-|
 |-------------------------------------------------------|

 


 [+] [+] [+] [+] [+]  

 
 |-------------------------------------------------------------------------|
 |-------------------------------------------------------------------------|
 |-------------------------------------------------------------------------|
 |-4--------4--------4--------4--------44-------444------444------444------|
 |-2--2--3--2--2--3--2--2--3--2--2--3--222222333222222333222222333222222333|
 |----2--3-----2--3-----2--3-----2--3-----222333---222333---222333---222333|

 


 Chorus[++++++++++++++++++++++++++++++++++++]


 

 
 |----------------------------------------------------------------|
 |----------------------------------------------------------------|
 |----------------------------------------------------------------|x4
 |------1010-9-9\7------1010-9-9\7------1010-9-9\7----------------|
 |-0-0--8-8--7-7\5-0-0--8-8--7-7\5-0-0--8-8--7-7\5-5-5-5-3-3-3-3\2|
 |-0-0-------------0-0-------------0-0-------------5-5-5-3-3-3-3\2|
 |-------|
 |-------|
 |-------|

 


 |-1-1-1-|


 |-1-1-1-|


 |-1-1-1-|


 


 Interlude 1 repeat section x8


 

 
 |-------------------------------------|------------------------------|
 |-------------------------------------|------------------------------|
 |-------------------------------------|------------------------------|
 |-------------------------------------|---0-8-7--0-7-3--0-3-2--0-2-0-|
 |-3h0005h0003h0005h000-0----3h0005h000|------------------------------|
 |-3h0005h0003h0005h000-0----3h0005h000|-0----------------------------|

 


 [++++++++++++++++++++] [++++++++++]  


 Solo 1-don't know it: any suggestions?


 


 Interlude 2


 Repeat x2


 

 
 |------------------------------|
 |------------------------------|
 |------------------------------|
 |-7-8-7-----7-8-7--------------|
 |-------8---------8-5----------|
 |-0-0-0-0-0-0-0-0-0-0-0-0-0-0-0|

 


 [+] [+] [+] [+] [+] [+]  

 
 |----------------------------------------|
 |----------------------------------------|
 |----------------------------------------|repeat whole Interlude x2
 |-7-8-7----7--7-8-7-7---7--7-7----7------|
 |-------8----------------------8----8-8-5|
 |-0-0-0-0--0--0-0-0-0---0--0-0-0--0-0-0-0|

 


 


 Pre-solo


 

 
 |---------------------------------------------------------------|
 |---------------------------------------------------------------|
 |---------------------------------------------------------------|
 |---------------------------------------------------------------|
 |---------------------------------------------------------------|

 


 |-00000000000000000000000000000000222222222222222222222222222222|


 [++++++++++++++++++++++++++++++++++++++++++++++++++++++++++++++]  


 Solo 2-don?t know it either; sorry


 


 Bridge repeat this section x3


 

 
 |---------------------|---------------------------------------|
 |---------------------|---------------------------------------|
 |---------------------|---------------------------------------|
 |---------------------|-----------------------10-9--8--7--8--9|
 |---------------------|-----------------------8--7--6--5--6--7|
 |-00000000000000000000|0000000000000000000000-----------------|

 


 [+++++++++++++++++++++++++++++++++++++++++++]  


 repeat this section x6 (don?t last note on


 

 
 |-----------------------------|------------------| sixth repeat
 |-----------------------------|------------------|
 |-----------------------------|------------------|
 |-7--6--5--4--5---------------|-------------3-2-1|
 |-5--4--3--2--3---------------|-------------3-2-1|
 |---------------00000000000000|00000000000003-2-1| 

 


 [++++++++++++++++++++++++++++]  


 Outro-first repeat clean part of intro with distortion and wah, then this


 

 
 |----------------------------------------|
 |----------------------------------------|
 |----------------------------------------|x2
 |----------------------------------------|
 |-3h0-5h0-3h0-5h0-0-0-3h0-5h0-3h0-5h0-0-0|
 |-3h0-5h0-3h0-5h0-0-0-3h0-5h0-3h0-5h0-0-0|
 |--------------|
 |--------------|
 |--------------|
 |-----------5--|x4
 |-0--0-3------6|
 |-0--0-3--0----|
 |--------------------------|
 |--------------------------|
 |--------------------------|
 |---0-5-6-5let-ring---0-5-0|
 |-------------------------0|
 |-0-----------------0-----0|


Important: The song above is NOT stored on the Chordie server. The original song is hosted at www.guitartabs.cc. Chordie works as a search engine and provides on-the-fly formatting. Chordie does not index songs against artists'/composers' will. To remove this song please click here.

This song is displayed as text-only. Transposing and tuning is only available for chordpro-songs.
Rate #1 of 5 versions

Login - add to songbook

SHARE PAGE  



You need to log in to post comments