Guitar Tabs, Chords and Lyrics
Major upgrade!! After one year development the new version of Chordie is now online! Please give feedback.


Blackened  Metallica

G5 3 5 5 x x x
Bb5 6 8 8 x x x
E5 0 2 2 x x x
D5 x 5 7 7 x x
C5 x 3 5 5 x x
F#5 2 4 4 x x x
F5 1 3 3 x x x
Eb5 x 6 8 8 x x
E5VII x 7 9 9 x x
F5VIII x 8 10 10 x x
F#5IX x 9 11 11 x x
B5 x 2 4 4 x x
Gtr I, II, III (E A D G B E) - 'James Hetfield - Rhythm w/dist'
Gtr IV (E A D G B E) - 'Kirk Hammett - Lead w/dist'
Gtr V (E A D G B E) - 'Kirk Hammett - Harmonised Lead w/dist'
Intro - Fade In
Q=72
[4/4] Gtr I
 
 |-----3------| |-----3------|

Q T T E. E +E +E E +E +E
 
 |-14--15h17p15--17b18==(17)r(17)-17b18==(17)r(17)-|
 |-------------------------------------------------|
 |-------------------------------------------------|
 |-------------------------------------------------|
 |-------------------------------------------------|
 |-------------------------------------------------|

|backwards guitar
| Gtr II
 
 | |-----3------| |-----3------|

| Q T T E. E +E +E E +E +E
 
 |-------------------------------------------------|
 |-16--17h19p17--19b20==(19)r(19)-19b20==(19)r(19)-|
 |-------------------------------------------------|
 |-------------------------------------------------|
 |-------------------------------------------------|
 |-------------------------------------------------|

backwards guitar
E E Q E E Q E E Q A E E E E E E Q E E Q
 
 |-17s15-15--17s15-15--|--9s7-7----------------|------------------|
 |---------------------|---------12s10-8-10-12-|-10s8-8--10s8-8---|
 |---------------------|-----------------------|------------------|
 |---------------------|-----------------------|------------------|
 |---------------------|-----------------------|------------------|
 |---------------------|-----------------------|------------------|

|
| E E Q E E Q E E Q E E E E E E Q E E Q
 
 |---------------------|-----------------------|------------------|
 |-19s17-17--19s17-17--|-------------7----7----|--7s5-5---7s5-5---|
 |---------------------|-----------------------|------------------|
 |---------------------|-11s9-9--------9-----9-|------------------|
 |---------------------|-----------------------|------------------|
 |---------------------|-----------------------|------------------|

E E Q A E E E E E E Q E E Q
 
 |--------------------------|-----------------|
 |-/12-12-12--12s10-8-10-12-|-10s8-8--10s8-8--|
 |--------------------------|-----------------|
 |--------------------------|-----------------|
 |--------------------------|-----------------|
 |--------------------------|-----------------|

|
| E E Q E E E E E E Q E E Q
 
 |--------------------------|-----------------|
 |----------------7----7--8-|--7s5-5---7s5-5--|
 |--------------------------|-----------------|
 |---9-10--9--------9-------|-----------------|
 |--------------------------|-----------------|
 |--------------------------|-----------------|

Q E. T T E. S +S +S +E H H
 
 |--------------------------------|------------------||
 |-\0--4--5h7p5--7-(7)b8==(7)r(7)-|-10------10-------||
 |--------------------------------|------------------||
 |--------------------------------|------------------||
 |--------------------------------|------------------||
 |--------------------------------|------------------||

|
| Q E. T T E. S +S +S +E E E Q E E Q
 
 |--------------------------------|------------------||
 |-\0--4--5h7p5--7-(7)b8==(7)r(7)-|--7s5-5---7s5-5---||
 |--------------------------------|------------------||
 |--------------------------------|------------------||
 |--------------------------------|------------------||
 |--------------------------------|------------------||

Q=182
[5/4] Gtrs I, II Gtr[7/4] I
E E E E S S E Q E E E E E E E E E E E E E E E E
 
 |----------------------||------------------------------|
 |----------------------||o-----------------------------|
 |----------------------||--------------------------3---|
 |-2-------------2------||--x-2-x-2-x-2-3-2-x-2-x-2---2-|
 |---------3-4-5------x-||o-----------------------------|
 |---2-3-4--------------||------------------------------|

|-Rhy Fig 1
E E E E E E E E E E E E S S E 3x
 
 |----------------------------------||
 |---------------------------------o||
 |----------------------------------||
 |-x-2-x-2-x-2-3-2-2----------------||
 |-------------------------3-4-5---o||
 |-------------------2-3-4----------||

end Rhy Fig 1-|
E E E E E E E E E E E E E E [4/4] E S S E E E E Q E S S E E E E Q
 
 |-----------------------------|------------------|------------------||
 |-----------------------------|------------------|------------------||
 |-------------------------3---|------------------|------------------||
 |-x-2-x-2-x-2-3-2-x-2-x-2---2-|-5-5-5-5---4-4----|-5-5-5-5---4-4----||
 |-----------------------------|-5-5-5-5---4-4----|-5-5-5-5---4-4----||
 |-----------------------------|-3-3-3-3-0-2-2----|-3-3-3-3-0-2-2----||

[7/4] Gtrs I, II
E E E E E E E E E E E E E E E E E E E E E E E E E E S S E 4x
 
 ||------------------------------|--------------------------------||
 ||o-----------------------------|-------------------------------o||
 ||--------------------------3---|--------------------------------||
 ||--x-2-x-2-x-2-3-2-x-2-x-2---2-|-x-2-x-2-x-2-3-2-2--------------||
 ||o-----------------------------|-------------------------3-4-5-o||
 ||------------------------------|-------------------2-3-4--------||

[6/4] E E E E E E E E E E E E 4x
 
 ||-----------------------------||
 ||o---------------------------o||
 ||-----------------------------||
 ||-----------------------------||
 ||o---------------------------o||
 ||--0-0-0-0-0-0-6-0-0-7-6-3----||

|-Rhy Fig 2 end Rhy Fig 2-|
Verses
||-[6/4]-
||o-
||-- Rhy Fig 2 x3
||--
||o-
||--
[E] [E] [E] [E] [E] [E] [E] [E] [E] [E] [E] [E]  
 
 |-------------------------|
 |-------------------------|
 |-------------------------|
 |-5-5-5-5-5-8-8-8---------|
 |-5-5-5-5-5-8-8-8---------|
 |-3-3-3-3-3-6-6-6-0-7-6-3-|

|-Rhy Fig 2A ----|
Rhy Fig 2 x3
Rhy Fig 2A
R[7/4]hy Fig 1
Chorus
E E E E E E E E E E E E E E [2/4] E E E E [4/4] H +Q Q
 
 |-----------------------------|---------||---------------|
 |-----------------------------|---------||---------------|
 |-------------------------3---|---------||---------------|
 |-x-2-x-2-x-2-3-2-x-2-x-2---2-|---------||-2----(2)\-----|
 |-----------------------------|---------||-2----(2)\-----|
 |-----------------------------|-0-0-0-0-||-0----(0)\-----|

Gtrs I, II
[D5]Q E E [C5]Q E E [F#5]W [G5]S S E Q [F#5]S S E Q [E5]H. E E
| | | | | | | | | | | | | | | |
[/] [/] [/] [/] [/] [/] [/] [/] [/] [/] [/] [/] [/] [/] [/] [/]  
 
 |---------------|----------|-------------------|---------------|

1.
G[7/4]trs I, II
|-3-|
Q E E Q Q Q W E S S E E E E Q E E E E E E E E E E E E E E
 
 |--------------|----------|------------------|------------------------------|
 |--------------|----------|------------------|------------------------------|
 |-7--7-7-5-5-5-|----------|------------------|-------------------------3----|
 |-7--7-7-5-5-5-|-4--------|-5-5-5-5---4-4----|-x-2-x-2-x-2-3-2-x-2-x-2---2--|
 |-5--5-5-3-3-3-|-4--------|-5-5-5-5---4-4----|------------------------------|
 |--------------|-2--------|-3-3-3-3-0-2-2----|------------------------------|

W
E E E E E E E E E E E E S S E
 
 |--------------------------------||
 |-------------------------------o||
 |--------------------------------||
 |-x-2-x-2-x-2-3-2-2--------------||
 |-------------------------3-4-5-o||
 |-------------------2-3-4--------||

2. Slower Q=128
[E5]  
G[4/4]trs I, II [2/4] [7/4]Gtr II
W W W +H.
| |
[/] [/] 
E S S E E E E Q E E Q W
 
 |------------------|--------||-----------------||
 |------------------|--------||-----------------||
 |------------------|--------||-----------------||
 |-5-5-5-5---4-4----|-4-4----||-----------------||
 |-5-5-5-5---4-4----|-4-4----||-----------------||
 |-3-3-3-3-0-2-2----|-2-2----||-----------------||

[4/4] Gtr II
|-Rhy Fig 3 (Rhythm slashes take 2nd ending)
+W +W +W +W
| | | |
[/] [/] [/] [/] 
Gtr I (Gtr II doubles on repeat)
 
 PM----| PM----| PM----|

E E E E E E E E E E E E E E E E E E E E E E E E Q H.
 
 ||-------------------|------------------|------------------|-----------|
 ||o------------------|------------------|------------------|-----------|
 ||-------------------|------------------|------------------|-----8-----|
 ||---------2---------|------3-2---------|--------2---------|-----8-----|
 ||o----0-1-----------|--0-1-------------|----0-1-----------|-----6-----|
 ||--\0-------0-0-0-0-|----------0-0-0-0-|--0-------0-0-0-0-|--6--------|

W W W W
1.
+W +W +W Q E E Q Q
| | | | | |
/ / / x x x
 
 PM----| PM----| PM----|

E E E E E E E E E E E E E E E E E E E E E E E E Q H.
 
 |------------------|------------------|------------------|----------------||
 |------------------|------------------|------------------|---------------o||
 |------------------|------3-----------|------------------|----8-----------||
 |--------2---------|--2-----2---------|--------2---------|----8-----------||
 |----0-1-----------|----1-------------|----0-1-----------|----6----------o||
 |--0-------0-0-0-0-|----------0-0-0-0-|--0-------0-0-0-0-|-6--------------||

W
2.
W [5/4] W
Gtrs I, II
\0.5___/ \0.5___/
PM----|
E E E E E E E E Q H +E +E +E +E
 
 |-----------------|--------------------------------||
 |-----------------|--------------------------------||
 |-----------------|-----8----(8)----(8)-(8)----(8)-||end Rhy Fig 3
 |-------2---------|-----8----(8)----(8)-(8)----(8)-||
 |---0-1-----------|-----6----(6)----(6)-(6)----(6)-||
 |-0-------0-0-0-0-|-6--------(6)----(6)-(6)----(6)-||

H. H
Bridge
[E5]  
[4/4]Gtrs I, II
Q E E E Q. +Q E E E Q.
| | | | | | | | | |
[/] [/] [/] [/] [/] [/] [/] [/] [/] [/]  
 
 |---------------|-----------------|

Eb5 E5VII
+Q E E E Q. H +Q Q +Q E E E Q.
| | | | | | | | | | | | |
[/] [/] [/] [/] [/] [/] [/] [/] [/] [/] [/] [/] [/]  
 
 |----------------|-------------|----------------|

+Q E E E Q. +Q E E E Q.
| | | | | | | | | |
[/] [/] [/] [/] [/] [/] [/] [/] [/] [/]  
 
 |----------------|----------------|

Eb5 E5F5VIF#5IX F5VIII
H. E E Q E E E Q. +Q E E E Q. Q E E E Q. [3/4] H Q
| | | | | | | | | | | | | | | | | | | |
[/] [/] [/] [/] [/] [/] [/] [/] [/] [/] [/] [/] [/] [/] [/] [/] [/] [/] [/] [/]  
 
 |-------------|---------------|----------------|---------------|---------||

[4/4] Gtrs I, II
Rhy Fig 3
E5 Eb5 E5VII
[4/4] Gtrs I, II
Q E E E Q. +Q E E E Q. +Q E E E Q. H +Q Q
| | | | | | | | | | | | | | | | | |
[/] [/] [/] [/] [/] [/] [/] [/] [/] [/] [/] [/] [/] [/] [/] [/] [/] [/]  
 
 |---------------|----------------|----------------|-------------|

Eb5 E5F5VIII
Q E E E Q. +Q E E E Q. +Q E E E Q. H. E E
| | | | | | | | | | | | | | | | | |
[/] [/] [/] [/] [/] [/] [/] [/] [/] [/] [/] [/] [/] [/] [/] [/] [/] [/]  
 
 |---------------|----------------|----------------|-------------|

F#5IX F5VIII
Q E E E Q. +Q E E E Q. +Q E E E Q. H. +Q
| | | | | | | | | | | | | | | | |
[/] [/] [/] [/] [/] [/] [/] [/] [/] [/] [/] [/] [/] [/] [/] [/] [/]  
 
 |---------------|----------------|----------------|-------------||

Interlude
|-R[4/4]hy Fig 4 (Rhy slashes)[2/4]
E5VII D5 C5 B5
Gtr III
Q. E +Q Q +Q E E
| | | | | | |
[/] [/] [/] [/] [/] [/] [/] 
Gtrs I, II
E E E E E E E E E E S S E
 
 ||-------------------------|----------------|
 ||o------------------------|----------------|
 ||-------------------------|----------------|
 ||------7--9-----7--9----7-|--9-10--9h10p=9-|
 ||o-10--9-10-10--9-10-10-9-|-10-12-10-12-10-|
 ||--12-------12-------12---|----------------|

E E E E E E E E E E S S E
[4/4] E5 D5 C5 [3/4] B5 end Rhy Fig 4-|
Q. E +Q Q +E Q E E E
| | | | | | | | |
[/] [/] [/] [/] [/] [/] [/] [/] [/] 
E E E E E E E E E E S S E E E
 
 |------------------------|----------------------||
 |------------------------|---------------------o||
 |--------------7--9----7-|--9-11--9h11p=9-------||
 |-----7--9-----9-10-10-9-|-10-12-10-12-10--9-7--||
 |-10--9-10-10-------12---|----------------10-9-o||
 |-12-------12------------|----------------------||

E E E E E E E E E E S S E E E
w[4/4]/Rhy Fig 4 x2[2/4]
E E E E E E E E E E S S E
 
 |------------------------|----------------|
 |------------------------|----------------|
 |-----7--9-----7--9----7-|--9-11--9h11p=9-|
 |-10--9-10-10--9-10-10-9-|-10-12-10-12-10-|
 |-12-------12-------12---|----------------|
 |------------------------|----------------|

E E E E E E E E E E S S E
[4/4] [3/4]  
E E E E E E E E E E S S E E E
 
 |-----------------------|--------------------|
 |--------------7-8----7-|--8-10-8h10p8-7-----|
 |-----7--9-----7-9--9-7-|--9-11-9-11-9-7--9--|
 |-10--9-10-10------10---|----------------10--|
 |-12-------12-----------|--------------------|
 |-----------------------|--------------------|

E E E E E E E E E E S S E E E
[4/4] [2/4]  
E E E E E E E E E E S S E
 
 |----------------------|--------------|
 |-----7-8-----7-8----7-|--8-10-8h10p8-|
 |--9--7-9--9--7-9--9-7-|--9-11-9-11-9-|
 |-10------10------10---|--------------|
 |----------------------|--------------|
 |----------------------|--------------|

E E E E E E E E E E S S E
[4/4] [3/4]  
E E E E E E E E E E S S E E E
 
 |---------------7------|--7--8-7h=8p7-------||
 |-----7-8----10-8-8-10-|--8-10-8-10-8-8-10--||
 |--9--7-9--9-12---9-12-|--------------9-12--||
 |-10------10-----------|--------------------||
 |----------------------|--------------------||
 |----------------------|--------------------||

E E E E E E E E E E S S E E E
( Tab from: http://www.guitartabs.cc/tabs/m/metallica/blackened_tab_ver_6.html )
Guitar Solo
[4/4] GtrGtr IVI
E E E E E E E E E E E E E E E E E S S E S S E S S E S S
 
 |------------------|-------------7-8-|-8-7----7-------------------|
 |--8-7-8---7-8---7-|-8---7-8---7-----|-----10---10-8-10-8-7-8-7---|
 |-/9-----9-----9---|---9-----9-------|--------------------------9-|
 |------------------|-----------------|----------------------------|
 |------------------|-----------------|----------------------------|
 |------------------|-----------------|----------------------------|

| H H
|
| Gtr III
| E E E E E E E E E E E E E E Q
 
 |------------------|-----------------|
 |------------------|-----------------|
 |------------------|-----------------| w/Rhy Fig 5 x6
 |--7-4-7-4-7-4-7-4-|-7-4-7-4-7-4-----|
 |--7-4-7-4-7-4-7-4-|-7-4-7-4-7-4-----|
 |------------------|-----------------|

|-Rhy Fig 5 end Rhy Fig 5-|
|-3-| |-3-|
E S S E S S S S E Q S S S S S S S S S S S S S S S S S S
 
 |----------------------|----------------------------------7-9-|
 |-7--------------------|---------------7-8-7h8p7---7-8-11-----|
 |---9-7-9-7-6-7-6------|-6h7p6---6-7-9-----------9------------|
 |-----------------7-9--|-------9------------------------------|
 |----------------------|--------------------------------------|
 |----------------------|--------------------------------------|

|-3-|
S S S S S S S S a S S S S S S S S S
 
 |-7h9p7----7-9-10-12-12p10-9-7----7-9-10-12-9--|
 |-------11---------------------11--------------|
 |----------------------------------------------|
 |----------------------------------------------|
 |----------------------------------------------|
 |----------------------------------------------|

T T T T T T T T T T T T
 
 |-------6--------| |------6-------| |------6-------| |------6------|

S S S S T T S S S S S T T S S S S S T T S S S S S T T S
 
 |-19p12-19p10-19p10p9-18p10-18p8-18p8p7-18p10-18p8-18p8p7------------------|
 |---------------------------------------------------------17p8-17p7-17p5h7-|
 |--------------------------------------------------------------------------|
 |--------------------------------------------------------------------------|
 |--------------------------------------------------------------------------|
 |--------------------------------------------------------------------------|

T T T T T T
 
 |------6------| |----5----|

S S S S T T S S T T S T T S.T S S S Q
 
 |------------------------------------------------|
 |-17p8-17p7-17p7p5-17p8p7-17p8p7-17p8p7p==5s3s5--|
 |------------------------------------------------|
 |------------------------------------------------|
 |------------------------------------------------|
 |------------------------------------------------|

Gtrs IV, V
Q. E +Q E S S
 
 |-12b14-----12b14==(12)r---12b14r12p10-|
 |-10b12-----10b12==(10)r---10b12r10p=8-|
 |--------------------------------------|
 |--------------------------------------|
 |--------------------------------------|
 |--------------------------------------|

Q. E +Q E S S
|--3--|
Q S S S E Q A S S E E Q E +E E E E
 
 |-12---10h12p10-9-10---9h10-9-7-|-6-19b21---19b21==(19)r19-18-15-|
 |-10----8h10p=8-7--8---7h=8-7---|---17b19---17b19==(17)r17-16-13-|
 |-----------------------------9-|-6------------------------------|
 |-------------------------------|--------------------------------|
 |-------------------------------|--------------------------------|
 |-------------------------------|--------------------------------|

Q S S S E Q A S S E E Q E +E E E E
|--3--|
Gtr IV
 
 |------5------| |------5------| |------5------|

E E S S E S S E E E +Q S S S S S S S S S S S S S S S
 
 |-14-15-15p14----15p14----/12-14-|-(14)---18-14-12---18-14-12-18-14---12-18-14-12-18---14-12-|
 |-12-13-13-12-17-13-12-15--------|-----------------------------------------------------------|
 |-------------14-------12--------|-----------------------------------------------------------|
 |--------------------------------|-----------------------------------------------------------|
 |--------------------------------|-----------------------------------------------------------|
 |--------------------------------|-----------------------------------------------------------|

E E S S E S S E E E
 
 |------5------| |------5------|

S S S S S S S S S S S S S S E E
 
 |-18-14-12---18-14-12-18-14-12-18-14-12---18-14-12-19-||
 |-----------------------------------------------------||
 |-----------------------------------------------------||
 |-----------------------------------------------------||
 |-----------------------------------------------------||
 |-----------------------------------------------------||

A Tempo Q=182
W W [2/4] W [4/4] H +H
 
 |------------------|------------------|--------||--------------------------|
 |------------------|------------------|--------||-13b14========(13)--------|
 |------------------|------------------|--------||-13b15========(13)--------|
 |------------------|------------------|--------||--------------------------|
 |------------------|------------------|--------||--------------------------|
 |------------------|------------------|--------||--------------------------|

|
| PM PM PM PM
| E S S E E E E Q E S S E E E E Q E E Q E E E E E E E E
 
 |------------------|------------------|--------||--------------------------|
 |------------------|------------------|--------||--------------------------|
 |------------------|------------------|--------||--------------------------|
 |-5-5-5-5---4-4----|-5-5-5-5---4-4----|-3-3----||--x-----2-x-2---x--2-x-2--|
 |-5-5-5-5---4-4----|-5-5-5-5---4-4----|-3-3----||--------------------------|
 |-3-3-3-3-0-2-2----|-3-3-3-3-0-2-2----|-1-1----||--------------------------|

|-Rhy Fig 6
~~~~~
+H. E E
 
 |-----------------/18-19-|
 |-(13)r------------------|
 |-(13)r------------------|
 |------------------------|
 |------------------------|
 |------------------------|

|
| PM PM PM PM
| E E E E E E E E
 
 |------------------------|
 |------------------------|
 |------------------------|
 |---x---0-x-0-x-0---x--0-|
 |------------------------|
 |------------------------|
 |--3--| |--3--| |--3--| |--3--|

S S S E a S S S S S S S S S S S S S S S
 
 |-24-22-20-19-xh23-21-19-17-(17)-20-19-17-15-(15)-19-17-15-14-14-|
 |----------------------------------------------------------------|
 |----------------------------------------------------------------|
 |----------------------------------------------------------------|
 |----------------------------------------------------------------|
 |----------------------------------------------------------------|

|
| PM PM PM PM
| E E E E E E E E
 
 |----------------------------------------------------------------|
 |----------------------------------------------------------------|
 |----------------------------------------------------------------|
 |--x--------3----x--------3-------x--------3-------x--------3----|
 |----------------------------------------------------------------|
 |----------------------------------------------------------------|

end Rhy Fig 6-|
 
 |------6-------| |-------6--------| |-----6-----| |-3--|

S T T S S S S S S S S S S S S S S S S S S S E
 
 |-17-17p15-14-12-11-12-15-14-12-10-9-10-14-12-10-9-8-9-12-10-8-7-|
 |----------------------------------------------------------------|
 |----------------------------------------------------------------|
 |----------------------------------------------------------------|
 |----------------------------------------------------------------|
 |----------------------------------------------------------------|

|
| PM PM PM
| E E E E E E E E
 
 |----------------------------------------------------------------|
 |----------------------------------------------------------------|
 |----------------------------------------------------------------|
 |--x-----------2--------x--------2-------x-------2------0h=====2-|
 |----------------------------------------------------------------|
 |----------------------------------------------------------------|

w/Rhy Fig 6
Q Q T S. S S +S E.
 
 |-------------------------------------|
 |-10b12---10b12---12p10--8-7-(7)------|
 |--------------------------------9----|
 |-------------------------------------|
 |-------------------------------------|
 |-------------------------------------|

|--3--|
S S S S E E E Q. E E E E E E E E E
 
 |--------------------------|-----------------|
 |-7-8-7---7----------------|-7---------0---0-|
 |-------9---9---7-9------7-|---9-7---9---7---|
 |--------------------------|-------9---------|
 |--------------------------|-----------------|
 |--------------------------|-----------------|

\2.5__/
E E E E +H A W
 
 |-------------------|-----------------------||
 |-------------------|-0-----0---------------||
 |-2-----------------|-----------------------||
 |---4-2-0-(0)-------|-----------------------||
 |-------------------|-----------------------||
 |-------------------|-----------------------||

|
| PM PM PM
| E E E E E E E E E E E E E E E E
 
 |-------------------|-----------------------||
 |-------------------|-----------------------||
 |-------------------|-----------------------||
 |-x-2-x-2--x--2-0h2-|-----------------------||
 |-------------------|-----------------------||
 |-------------------|-0-----0-0-0-0-0-0-0---||

E5VII D5 C5 F#5
Gtr III
H. E E Q E E Q E E W
| | | | | | | | | |
/ x x / / / / / / /
Gtr IV
|-3-|
H +H S E. E E E E E E E E E +H E E
 
 |-------------------|-------------------|-------------------|
 |-12-----(12)\------|-------------------|-----------------7-|
 |-12-----(12)\------|-7h9--7----5h7-5-4-|-5-4----------/9---|
 |-12-----(12)\------|--------10---------|-----4-(4)---------|
 |-------------------|-------------------|-------------------|
 |-------------------|-------------------|-------------------|

[G5]S S E Q [F#5]S S E Q
| | | | | |
[/] [/] [/] [/] [/] [/]  
 
 |---3---| |-3--|

E E E E E E S S S S S S T T S
 
 |------------------7h8p7----7-8-8h10-12---|
 |-8---7-----7-8-10-------10---------------|
 |---------9-------------------------------|
 |-----------------------------------------|
 |-----------------------------------------|
 |-----------------------------------------|

E5VII D5 C5 F#5 E5
5/8
H. E E Q E E Q E E W E E E E E
| | | | | | | | | | | | | | |
[/] [/] [/] [/] [/] [/] [/] [/] [/] [/] [/] [/] [/] [/] [/] 
\1.5
E S S H E E E E Q E E Q S. T E H. Q. +Q
 
 |-12--10-8-7--------|-----------------|-7---------------|-------------------|
 |-------------------|-----------------|----10p8-7-------|--------()---|
 |-------------------|-9-7-----7-5-----|-----------------|--------()---|
 |---------------x-x-|-9-7-----7-5-----|-----------------|-------------------|
 |---------------x-x-|-----------------|-----------------|-------------------|
 |---------------x-x-|-----------------|-----------------|-------------------|

[4/4] S S S S S S S S S S S S S S S S S S S S S S S S S S S S S T T S S
 
 |-----------------------------------------|-----------------------------------|
 |-----------------------------------------|-----------------------------------|
 |-12p0-12p0-12p0-12p0-12p0-12p0-11p0-11p0-|-9p0-9p0-9p0-9p0-9p0-9p0-9p0-0-9p0-|
 |-----------------------------------------|-----------------------------------|
 |-----------------------------------------|-----------------------------------|
 |-----------------------------------------|-----------------------------------|

|
| Gtr III
| E E E E E E E E E E E E E E E E
 
 |-----------------------------------------|-----------------------------------|
 |-----------------------------------------|-----------------------------------|
 |-----------------------------------------|-----------------------------------|
 |-----------------------------------------|-----------------------------------|
 |--7---------7---------7---------7--------|-7-------7-------7-------7---------|
 |-------7---------7---------7---------7---|-----6-------6-------6---------6---|

S S S S S S S S S S S S S S S S
 
 |------------------------------------------|
 |------------------------------------------|
 |-16p0-16p0-16p0-16p0-16p0-16p0-14p0-14p0--|
 |------------------------------------------|
 |------------------------------------------|
 |------------------------------------------|

|
| E E E E E E E E
 
 |------------------------------------------|
 |------------------------------------------|
 |------------------------------------------|
 |------------------------------------------|
 |--5---------5---------5---------5---------|
 |-------3---------3---------3---------3----|

S S S S S S S S S S S S S S S S
 
 |-----------------------------------------|
 |-----------------------------------------|
 |-12p0-12p0-12p0-12p0-12p0-12p0-12p0-12p0-|
 |-----------------------------------------|
 |-----------------------------------------|
 |-----------------------------------------|

|
| E E E E E E E E
 
 |-----------------------------------------|
 |-----------------------------------------|
 |-----------------------------------------|
 |-----------------------------------------|
 |--3---------3---------3---------3--------|
 |-------3---------3---------3---------3---|

S S S S T T S S S S S S S S S S S S S S S S S S S S S S S S S S S
 
 |-----------------------------------|------------------------------------|
 |-----------------------------------|------------------------------------|
 |-2p0-2p0-2h4p0-4p0-5p0-5p0-4p0-4p0-|-5p0-5p0-7p0-7p0-9p0-9p0-9p0-9p0----|
 |-----------------------------------|------------------------------------|
 |-----------------------------------|------------------------------------|
 |-----------------------------------|------------------------------------|

|
| E E E E E E E E E E E E E E E E
 
 |-----------------------------------|------------------------------------|
 |-----------------------------------|------------------------------------|
 |-----------------------------------|------------------------------------|
 |-----------------------------------|------------------------------------|
 |-7-------7---------7-------7-------|-7-------7-------7-------7----------|
 |-----7---------7-------7-------7---|-----6-------6-------6-------6------|

Gtr III[G5]
[E]| [E]| [E]| [E]| [E]| [E]| [E]| [E]|
[/] [/] [/] [/] [/] [/] [/] [/]  
Gtr IV
\2.5___/ \1.5____/
 
 |-------3-------|

A H. +Q A +E
 
 |--------------------------------------------|
 |--------------------------------------------|
 |----------------()---()---()-|
 |----------------()---()---()-|
 |--------------------------------------------|
 |--------------------------------------------|

2[C5]/4 5[G5]/8
[E]| [E]| [E]| [E]| [E]| [E]| [E]| [E]| [E]|
[/] [/] [/] [/] [/] [/] [/] [/] [/] 
\1.5____/ \1.5____/ \1.5______/ \2/ \2/ \2/ \2/ \2/
 
 |-------3-------| |-------3-------|

[+E] [+E] [+E] [+E] [+E] [+E] [+E] [+E] [+E] [+E] [+E]  
 
 |-----------------------------------------------|-------------------------------||
 |-----------------------------------------------|-------------------------------||
 |-()---()---()---()-()-----()-|-()-()-()-()-()-||
 |-()---()---()---()-()-----()-|-()-()-()-()-()-||
 |-----------------------------------------------|-------------------------------||
 |-----------------------------------------------|-------------------------------||

[7/4] Gtrs I, II
Rhy Fig 1 x4
Verse
[6/4]Rhy Fig 2 x3
Rhy Fig 2A
Rhy Fig 2 x3
Rhy Fig 2A
Rhy Fig 1 x1.5
Chorus
[2/4] Gtrs I, I[4/4]I
[E]E E E E [E5]H +Q Q [D5]Q E E [C5]Q E E [F#5]W [G5]S S E Q [F#5]S S E Q
| | | | | | | | | | | | | | | | | | |
o / / / / / / / / / / / / / / / / / /
 
 |---------|-------------|---------------|----------|---------------------|

5/8
[E5] [D5] [C5]|-3-|[F#5] [G5] [E] [F#5]
H. E E Q E E Q Q Q W E S S E E E
| | | | | | | | | | | | | | | |
/ / / / / / / / / / / / / / o /
 
 |-------------|---------------|----------|--------------|

[4/4]  
[E5]H +Q Q [D5]Q E E [C5]Q E E [F#5]W [G5]S S E Q [F#5]S S E Q
| | | | | | | | | | | | | | |
[/] [/] [/] [/] [/] [/] [/] [/] [/] [/] [/] [/] [/] [/] [/]  
 
 |-------------|---------------|----------|-------------------|

[3/4] 
[E5] [D5] [C5]|-3-|[F#5] [G5] [E] [F#5]
H. E E Q E E Q Q Q W E S S E E E E
| | | | | | | | | | | | | | | | |
/ / / / / / / / / / / / / / o / /
 
 |-------------|---------------|----------|---------------|

[4/4] E S S E E E E Q [2/4] E E Q [7/4] E E E E E E E E E E E E E E W
 
 |------------------|--------|-----------------------------|------*|
 |------------------|--------|-----------------------------|------*|
 |------------------|--------|-------------------------3---|------*|
 |-5-5-5-5---4-4----|-4-4----|-x-2-x-2-x-2-3-2-x-2-x-2---2-|------*|
 |-5-5-5-5---4-4----|-4-4----|-----------------------------|------*|
 |-3-3-3-3-0-2-2----|-2-2----|-----------------------------|------*|


Important: The song above is NOT stored on the Chordie server. The original song is hosted at www.guitartabs.cc. Chordie works as a search engine and provides on-the-fly formatting. Chordie does not index songs against artists'/composers' will. To remove this song please click here.

Text color:
Chord color:
Chord grids: 
Font size:    
Page size: 

C5 D5 E E5 F#5 G5
Rate #1 of 8 versions

Jango Player

Login - add to songbook

SHARE PAGE  



You need to log in to post comments