Guitar Tabs, Chords and Lyrics
Major upgrade!! After one year development the new version of Chordie is now online! Please give feedback.


Bleeding Me   Metallica

 
 Eb|--------------------------------|--------------------------------|
 Bb|--------------------------------|--------------------------------|
 Gb|o-------------------------------|--------------------------------|
 Db|o--------5-------------------5--|---------5----------------------|
 Ab|-----5/7---5-7-------7-----5--7-|-----5/7---5-7-------7-----5----|
 Eb|-0---------------0-----5-3------|-0---------------0-----5\3---3^-|

 


 


 [1] [2] [3] [4] [1] [2] [3] [4] [1] [2] [3] [4] [1] [2] [3] [4]  

 
 Eb|--------------------------------|--------------------------------|
 Bb|--------------------------------|--------------------------------|
 Gb|--------------------------------|-------------------------------o|
 Db|---------5-------------------5--|---------5---------------------o|
 Ab|-----5/7---5-7-------7-----5--7-|-----5/7---5-7-------5-----5----|
 Eb|-0---------------0-----5-3------|-0---------------3-----3\2---3^-|

 


 


 Intro Fill


 ( Tab from: http://www.guitartabs.cc/tabs/m/metallica/bleeding_me_tab_ver_4.html )


 [1] [2] [3] [4] [1] [2] [3] [4] [1] [2] [3] [4] [1] [2] [3] [4]  

 
 Eb|--------------------------------|--------------------------------|
 Bb|-8-------8-------8-------8---6--|-8-------8-------8-------8---6--|
 Gb|o-------------------------------|-------------------------------o|
 Db|o-------------------------------|-------------------------------o|
 Ab|--------------------------------|--------------------------------|
 Eb|--------------------------------|--------------------------------|

 


 


 Pre Chorus (the "Wo-ah oh oh oh..." part)


 


 


 [1] [2] [3] [4] [1] [2] [3] [4] [1] [2] [3] [4] [1] [2] [3] [4]  

 
 Eb|-----------------------------------------------------------------|
 Bb|-----------------------------------------------------------------|
 Gb|o---------------------------------------------------------------o|
 Db|o-7-h-9-X-9-------5-h-7-X-7-------5-h-7-X-7---------------------o|
 Ab|--7-----X-7---X---5-----X-5---X---5-----X-5---X---5-h-7-X-7------|
 Eb|--------------------------------------------------5-------5-X-3^-|

 


 


 Chorus (the "Caught under wheels roll..." part)


 


 


 [1] [2] [3] [4] [1] [2] [3] [4] [1] [2] [3] [4] [1] [2] [3] [4]  

 
 Eb|-----------------------------------------------------------------|
 Bb|-----------------------------------------------------------------|
 Gb|o---------------------------------------------------------------o|
 Db|o-9---9---9---X---5h7-7---7---X---5h7-7---7---X-----------------o|
 Ab|--7---7---7---X---5---5---5---X---5---5---5---X---7---7---7------|
 Eb|--------------------------------------------------5---5---5-0-3^-|

 


 


 


 [1] [2] [3] [4] [1] [2] [3] [4]  

 
 Eb|-----------------------------------|
 Bb|-----------------------------------|
 Gb|o-----------------------------5---o|
 Db|o-7h9-----9-----7-----9-----5---5-o|
 Ab|--7---X-X-7-X-X-7-X-X-7-X-5--------|
 Eb|-----------------------------------|


Important: The song above is NOT stored on the Chordie server. The original song is hosted at www.guitartabs.cc. Chordie works as a search engine and provides on-the-fly formatting. Chordie does not index songs against artists'/composers' will. To remove this song please click here.

This song is displayed as text-only. Transposing and tuning is only available for chordpro-songs.
Rate #1 of 9 versions

Jango Player

Login - add to songbook

SHARE PAGE  




You need to log in to post comments