Guitar Tabs, Chords and Lyrics
Major upgrade!! After one year development the new version of Chordie is now online! Please give feedback.


Fade to Black   Metallica

 
 [--------]reapeat through the intro solo
 [--------]
 [--0-----]

 


 [-4---0-4] 


 [2---4-5-] 


 

 
 [--------]

 


 Verse Riff


 

 
 [------0-----------3--------0----------]repeat twice before vocals
 [0h1----1----0-3-3----------0-----0-1\3]
 [2---2--0-2----3------0h2p0-0-----0-2\4]
 [2----2-2--2------0-0-------2--2-------]
 [0------3-----------------------2------]
 [--------------0--------------0--------]

 


 Chorus Riff


 

 
 [-------------------------------------------------------------------]
 [-------------------------------------------------------------------]
 [2-2-2-----5-5-5-----2-2-2-7-7-7-2-2-2-----5-5-5-----2-2-2----------]
 [2-2-2-----5-5-5-----2-2-2-7-7-7-2-2-2-----5-5-5-----2-2-2-5-4-3-3-3]
 [0-0-0-*-*-3-3-3-*-*-0-0-0-5-9-9-0-0-0-*-*-3-3-3-*-*-0-0-0-5-4-3-3-3]
 [----------------------------------------------------------3-2-1-1-1]

 


 repeat twice then go back to the verse riff


 Bridge Riff


 

 
 [----------------------------------------]repeat until the interlude
 [----------------------------------------]
 [----------------------------------------]
 [7\9-9-9-7\9-9-12-7-9-9-9-999-777-555-444]
 [5\7-7-7-5\7-7-10-5-7-7-7----------------]
 [----------------------------------------]

 


 Interlude


 

 
 [----------------------------------------------]repeat
 [----------------------------------------------]
 [----------------------------------------------]
 [--------9-------9-7--------9-999-777-5555-4444]
 [--------7-------7-5--------7------------------]
 [0-0-0-0--0-0-0-0---0-0-0-0--------------------]


Important: The song above is NOT stored on the Chordie server. The original song is hosted at www.guitartabs.cc. Chordie works as a search engine and provides on-the-fly formatting. Chordie does not index songs against artists'/composers' will. To remove this song please click here.

This song is displayed as text-only. Transposing and tuning is only available for chordpro-songs.
Rate #1 of 28 versions

Jango Player

Login - add to songbook

SHARE PAGE  




You need to log in to post comments