Guitar Tabs, Chords and Lyrics
Major upgrade!! After one year development the new version of Chordie is now online! Please give feedback.


The Call of Ktulu  Metallica

* *
***********************************
* *
* > *
* > "The Call Of Ktulu" < *
* *
* Tabulature by: *
* Szymon Luczak *
* & *
* Arek Dworecki *
* *
***********************************
* *
==============================================================================
Szymon Luczak version:
Tuning - Normal (e,B,G,D,A,e)
Intro....play each part twice....
Riff-A
 
 ||----5---------5---|---6---------6---|---8----------8---|---5---------5----||
 ||--------6-------6-|-------6-------6-|-------8--------8-|-------6-------6--||
 ||*-----7-----7-----|-----7-----7-----|-----9------9-----|-----7-----7-----*||
 ||*-0-------7-------|-0-------7-------|-0-------10-------|-0-------7-------*||
 ||------------------|-----------------|------------------|------------------||
 ||------------------|-----------------|------------------|------------------||

The next part....play it a few times....
Riff-B
 
 ||----------0------|---------0--------||
 ||--------0---0----|-------0---0------||
 ||*-----5------5---|-----5-------5---*||
 ||*---7------------|---7-----------7-*||
 ||--0------------7-|-6----------------||
 ||-----------------|------------------||

The next part....Dave Mustaine used this again in the intro to Hangar 18
Riff-C
 
 ||--------1-|-------1-|-------1-|-------5--||
 ||------3---|-----3---|-----3---|-----3----||
 ||*---2-----|---3-----|---4-----|---5-----*||
 ||*-0-------|-0-------|-0-------|-0-------*||
 ||----------|---------|---------|----------||
 ||----------|---------|---------|----------||

Riff-D
 
 ||-------------------|------------------|
 ||-------------------|------------------|
 ||*------------------|-9--8------7---5--|
 ||*--7-7-7-7-7-7-7---|-9--8--##--7---5--|
 ||---7-7-7-7-7-7-7---|-7--6------5---3--|
 ||---5-5-5-5-5-5-5---|------------------|

e e e e e e e q h h h
 
 |--1-1-1-1-1-1-1-1-1-1-1-1-5-5-5-5--||
 |--3-3-3-3-3-3-3-3-3-3-3-3-3-3-3-3--||
 |--2-2-2-2-3-3-3-3-4-4-4-4-5-5-5-5-*||
 |--0-0-0-0-0-0-0-0-0-0-0-0-0-0-0-0-*||
 |-----------------------------------||
 |-----------------------------------||

e e e e e e e e e e e e e e e e
__________
solo \
|
 
 e||-------------------------------------------------------| |
 B||-------------------------------------------------------| |
 G||*---------------------------------------------------7--| |
 D||*--7-7-9-10-9-7---7-9-10-9-7---7-9-10-9-7----7-9-10----| |
 A||----------------8------------9------------10-----------| |
 E||-------------------------------------------------------| |

|
 
 e|------------------------------------------------------| |
 B|------------------------------------------------------| |
 G|---------------------------------------------------8--| |
 D|--7-7-9-10-9-7---7-9-10-9-7---7-9-10-9-7----7-9-10----| |
 A|---------------8------------9------------10-----------| |
 E|------------------------------------------------------| |

| This solo
 
 e|------------------------------------------------------| \ is very
 B|---------------------------------------------------8--| / easy.
 G|--7-7-9-10-9-7---7-9-10-9-7---7-9-10-9-7----7-9-10----| |
 D|---------------8------------9------------10-----------| |
 A|------------------------------------------------------| |
 E|------------------------------------------------------| |

|
 
 e|-------------------------------------------------------|| |
 B|---------------------------------------------------9---|| |
 G|--7-7-9-10-9-7---7-9-10-9-7---7-9-10-9-7----7-9-10----*|| |
 D|---------------8------------9------------10-----------*|| |
 A|-------------------------------------------------------|| |
 E|-------------------------------------------------------|| | 

|
_______/
========================================================================
== TABLATURE EXPLANATION ==
========================================================================
 
 ---------- ---------- ----t---
 ----5h8--- Hammeron ----(8)--- Ghost ----6--- Tap
 ---------- ---------- Note --------
 ----8p5--- Pulloff ---------- --------
 ---------- ---------- -----p--
 ----5/8--- Slide Up -----x---- Dead -----7-- Pop
 ---------- ---------- Note --s-----
 ----8\5--- Slide Down ---------- --5----- Slap
 ---------- ||------|| Repeat --------
 ----5~~~-- Vibrato ||*----*|| ---5^--- Bend
 ---------- ||*----*|| --------
 ---------- ||------|| --------
 ---------- ---------- --------
 -4:------- Time ---------- --------
 -4:------- Signature ---------- --------
 ---------- ---------- --------

Rhythm:
w = whole note W = dotted whole
h = half note H = dotted half
q = quarter note Q = dotted quarter
e = eighth note E = dotted eighth
s = sixteenth note S = dotted sixteenth
t = 32nd note T = dotted 32nd
x = 64th note X = dotted 64th
^ = triplet

==============================================================================
Arkadiusz Dworecki version:
Tuning Normal
Riff A
 
 ||-----5-----5-----5-----5---|----6-----6-----6-----6---|---8------8-----8------8---|
 ||---------5---6-------5---6-|------------6-----------6-|------------8------------8-|
 ||*------7-----------7-------|------7-9---------7-9-----|-----9------------9--------|
 ||*-0------------0-----------|-0------------0-----------|-0-----10-----0-----10-----|
 ||---------------------------|--------------------------|---------------------------|
 ||---------------------------|--------------------------|---------------------------|
 |---5-----5---5---5---||
 |-------5---5-----6---||
 |-----7-----------7--*||
 |-0---------------0--*||
 |---------------------||
 |---------------------||

Riff B x 4
 
 ||----------0--------------0--------||
 ||--------0---0----------0---0------||
 ||------5------5-------5-------5---*||
 ||----7--------------7-----------7-*||
 ||--0------------7-6----------------||
 ||----------------------------------||

Riff C x 4
Fastes
 
 ||--------1-|-------1-|-------1-|-------5------||
 ||------3---|-----3---|-----3---|-----3---3----||
 ||----2-----|---3-----|---4-----|---5-------5-*||
 ||--0-------|-0-------|-0-------|-0-----------*||
 ||----------|---------|---------|--------------||
 ||----------|---------|---------|--------------||

Riff D
[Am] [Em2] [D#m2] [Dm2] [Cm2]  
 
 ||--------------------------------------|-----------------|
 ||--------------------------------------|-----------------|
 ||*-------------------------------------|-9--8-----7---5--|
 ||*--7----7----7----7----7----7----7----|-9--8--#--7---5--|
 ||---7----7----7----7----7----7----7----|-7--6-----5---3--|
 ||---5----5----5----5----5----5----5----|-----------------|

8.5 8.5 8.5 8.5 8.5 8.5 8.5 4 2 2 2 2
 
 |--1----1----1----1----1----1----1----1----1----1----1----1----5----5----5----5--||
 |--3----3----3----3----3----3----3----3----3----3----3----3----3----3----3----3--||
 |--2----2----2----2----3----3----3----3----4----4----4----4----5----5----5----5-*||
 |--0----0----0----0----0----0----0----0----0----0----0----0----0----0----0----0-*||
 |--------------------------------------------------------------------------------||
 |--------------------------------------------------------------------------------||

8.5 8.5 8.5 8.5 8.5 8.5 8.5 8.5 8.5 8.5 8.5 8.5 8.5 8.5 8.5 8.5
solo
 
 e||-------------------------------------------------------|
 B||-------------------------------------------------------|
 G||*---------------------------------------------------7--|
 D||*--7-7-9-10-9-7---7-9-10-9-7---7-9-10-9-7----7-9-10----|
 A||----------------8------------9------------10-----------|
 E||-------------------------------------------------------|
 e|------------------------------------------------------|
 B|------------------------------------------------------|
 G|---------------------------------------------------8--|
 D|--7-7-9-10-9-7---7-9-10-9-7---7-9-10-9-7----7-9-10----|
 A|---------------8------------9------------10-----------|
 E|------------------------------------------------------| 

==================================================================================
( GB ),( USA )
Hallo, my name is Szymon Luczak and I'm Polish.
My pseudo is SAMSON.My hobby is guitar playng and music.
I like listen METALLICA, QUEEN, LED ZEPPELIN, PINK FLOYD, BLACK SABBATH,
IRON MAIDEN, AC/DC, JIMI HENDRIX, ERIC CLAPTON, HEY (this is polish hard rock
group),ACID DRINKERS, BIG CYC (and this too).
O.K. My guitar it's ALVARO-spanish clasical,and IBANEZ-elektric (in school).
I like play clasics songs (Gomez,Fiedosiejew,Giuliani) and hard rock (Metallica,
Jimi Hendrix, Queen, Iron Maiden and Led Zeppelin).
Arkadiusz Dworecki it is my cousin.His very good guitar playng.
:-) Ufffff THE END
===================================================================================
( D ),( CH ),( A )
Servus ! Ich heiBe Szymon Luczak und ich komme aus Polen.
...
===================================================================================
( PL )
Czesc, nazywam sie Szymon Luczak.Moja xyvka: SAMSON.
Hobby: gra na gitarze i muzyka.
Lubie: to co wyzej grubym drukiem.
Posiadam: gitare klasyczna ALVARO ,a w szkloe gram na elktryku IBANEZ-a
Lubie: kalsyke i znow odsylam was do gornego tekstu.
A te drugi koles czyli Arek to moj kuzyn.To on nauczyl mnie podstaw gry
na tym wspanialym instrumencie.
:-) Dobra musze isc cos przelknac.Tak wiec wciskam ZAPISZ i ... .
====================================================================================
\/#####################################################\/
\/#####################################,^,####/U U\####\/
\/##| ___|#####| \/ |#####| _ |###|R|###o|H H|o###\/
\/##| |#########| |\/| |#####| |#| |###`v'###o|H H|o###\/
\/##|___ |#####| |##| |#####| |#| |#########o|H H|o###\/
\/######| |/ _ \| |##| | ___| |#| | \#| |####|===|####\/
\/##|_____| |#| |_|##|_| |###|_____| \| |####|___|####\/
\/########| _ |######|___ |#####| |####| |####\/
\/########| |#| |##########| |#####| |\ |####|---|####\/
\/########|_|#|_|######|_____|#####|_|#\_|####|___|####\/
\/############################################| |####\/
\/#####################################################\/
============================================================================

Important: The song above is NOT stored on the Chordie server. The original song is hosted at www.guitartabs.cc. Chordie works as a search engine and provides on-the-fly formatting. Chordie does not index songs against artists'/composers' will. To remove this song please click here.

Text color:
Chord color:
Chord grids: 
Font size:    
Page size: 

Am
Rate #1 of 4 versions

Login - add to songbook

SHARE PAGE  




You need to log in to post comments