Guitar Tabs, Chords and Lyrics
Major upgrade!! After one year development the new version of Chordie is now online! Please give feedback.


The Thing That Should Not Be   Metallica

 
 ------don't get wrong idea about my user name i like KISS I i thout this ---
 -way is more inspireing--------METALLICA------------------------------------
 ---------------------"THE THING THAT SHULD NOT BE"--------------------------

 


 


 ''bass guitar''


 D Tuneing


 


 

 
 |--|-[RIFF-A]-------------[x4]---|----[PLAY ONE TIME]----------------|
 |-4|-----------------------------|-----------------------------------|
 |-4|-----------1----2----3---4---|--------1-----2-----2------3-------|
 |--|----0-1-2-----2----2---3----0|-0-1-2----1-2---1-2----2-3---0-1-2-|
 |--[RIFF-B]-------|----[RIFF-C]-------|-------------|------------------|---|
 |-----------------|-------------------|-------------|------------------|---|
 |-----------------|-------------------|-------------|------------------|---|
 |-7-7-7-7-10-7-10-|--6-3-3-3-6-3-6----|---7-4-4-4-7-|-4-1-1-1-1-1-1-1-2|-0-|

 


 


 After acoustic part,now play riffa 4 times


 Then play part after one time


 Then it goes into a bridge witch is riff b,Riff goes down one step riff c.


 Half step up (I think). Then a step open d string then chorse.


 Then into chores wich has no bass thenn play riff A.


 


 NOW PLAY RIFF A


 


 

 
 |-----------------|----------------|---------------------------------------|
 |-----------------|----------------|--------[acousstic part]---------------|
 |-----------------|----------------|---------------------------------------|
 |-2----------0----|--2-----------0-|---------------------------------------|

 


 


 enter choris then repeat riff A


 


 AFTERWORDS PLAY RIFF B,C,D,E x2


 |~~~~~~~~~~~~[*UNDERNEATB*PLAYx2]~~~~~~~~~~~~~~~~~|


 

 
 --------------|------------------------------------|-|---|-|----------------
 --------------|------------------------------------|2|*-*|4|----------------
 --0---------1-|------------------------------------|4|*-*|4|----------------
 --------------|--5-6---5-6-0-0-0-0-0-0-0-0-0-0-0-0-|-|---|-|---------------
 |---------------------|----------------------------|-----------------------|
 |---------------------|------[riff a]-------------|----[riff b]------------|
 |------0--------------|---------1----2----3----4---|------1----2----3----4-|
 |--1------------0-----|---0-1-2----1----2----3-----|-0-1-2--1-2--2-3--3-4--|

 


 


 Above riff A is play with the lyics "In maddness you dwell"


 Afterwerds, you play riff B and then this.


 


 

 
 |---------------|-------------guitar solo is over this part-------|
 |---------------|-------------------------------------------------|
 |---------------|----------------------------[play x4]------------|
 |-1-------------||---5-6----5----6-0-0-0-0-0-0-0-0-5-6-5----------|

 


 


 END OF THE SOLO PLAY THIS


 

 
 |-----------------|-----------------|----------|-----------------------|
 |-----------------|-----------------|----------|-----------------------|
 |-0-----10---1-0--|-0-----0-310-1-0-|-0----1---|-0-----0-510-----------|
 |---3-5----3------|---3-5-----------|----------|---3-5-----------------|
 |-----------|--------------|--------------------------|
 |-----------|--------------|-------------[-PLAY x4]---|
 |--0------1-|-------0------|-------1---2---3--4-------|
 |-----------|-1---------0--|-0-1-2---1---2--3---------|
 |---------------|-----------------|-------[REPEAT-AND-FADEOUT]-------------|
 |---------------|-----------------|----------------------------------------|
 |-----------0---|-0---0-510-1-0---|----------------------------------------|
 |-1------------0|--3-5------------|-5-6-5-6-0-0-0-0-0-0-0-0-0-0-0----------|


Important: The song above is NOT stored on the Chordie server. The original song is hosted at www.guitartabs.cc. Chordie works as a search engine and provides on-the-fly formatting. Chordie does not index songs against artists'/composers' will. To remove this song please click here.

This song is displayed as text-only. Transposing and tuning is only available for chordpro-songs.
Rate #1 of 7 versions

Login - add to songbook

SHARE PAGE  



You need to log in to post comments