Guitar Tabs, Chords and Lyrics
Major upgrade!! After one year development the new version of Chordie is now online! Please give feedback.


The Unforgiven  Metallica

written by Hetfield and Ulrich
as performed on Metallica
tab by Dorothy St.Claire
The Unforgiven
INTRO
 
 |----------------------------------------|---------------------------|
 |------------====guitar====--------------|---------------------------|
 |----------------------------------------|--0---2-2-3------3------3--|
 |----------------------------------------|---------------------------|
 |--------------------------------------------------------------------|
 |-----------------------------------------------------------3-----3--|
 |-3-2---------2-----------0-0-2-----0-------0---2---3----------------|
 |-----3-----------0--------------------------------------------------|
 |--------------------------------------------------------------------|
 |-3-1----------------------------------------------------------------|
 |-----2-------2-----------2-----2---0--------------------------------|
 |-----------------4---------4----------------------------------------|

VERSE
It's kinda hard to get the right timing with this, so I did this part like
every other person did it, with a Chord sheet. Easier for everyone.
 
 |---| |---| |---| |---| |---|
 |---| |---| |---| |---| |---|
 |---| |---| |-5-| |---| |-3-|
 |-5-| A |-0-| E |---| D |-3-| G |---| C

[A]New blood joins this e[E]arth
[D]And quickly he's[A] subdued
Through constant pain dis[E]grace
[D]The young boy learns th[A]eir rules
With time the child draws [E]in
( Tab from: http://www.guitartabs.cc/tabs/m/metallica/the_unforgiven_btab.html )
[D]This whipping boy [A]done a wrong
Deprived of all his t[E]houghts
[D]the young man strugg[A]les on and on
He knows a vo[C]w unto his ow[G]n
[C]That never from [G]this day
His w[C]ill they'll take a[G]way.C[E]HORUS
 
 |--------------------------------------------------------------------|
 |--------------------------------------------------------------------|
 |--------0---2---3-------3------3---3-2---------2-----------0-0-2----|
 |---------------------------------------3-----------0----------------|
 |--------------------------------------------------------------------|
 |-------------------------3-----3---3-1------------------------------|
 |-0-------0---2---3---------------------2-------2-----------2---0-2--|
 |---------------------------------------------------4---------4------|
 |--------------------------------------------------------------------|
 |--------------------------------------------------------------------|
 |-0-------0---2---3-------3-----3---3-2---------2-----------0-0-2----|
 |---------------------------------------3-----------0----------------|
 |--------------------------------------------------------------------|
 |-------------------------3-----3---3-1------------------------------|
 |-0-------0---2---3---------------------2-------2-----------2---0-2--|
 |---------------------------------------------------4---------4------|
 |---------------------------------|
 |---------------------------------|
 |-0-------------------------------|
 |---------------------------------|

====

Important: The song above is NOT stored on the Chordie server. The original song is hosted at www.guitartabs.cc. Chordie works as a search engine and provides on-the-fly formatting. Chordie does not index songs against artists'/composers' will. To remove this song please click here.

Text color:
Chord color:
Chord grids: 
Font size:    
Page size: 

A C D E G
Rate #1 of 11 versions

Jango Player

Login - add to songbook

SHARE PAGE  




You need to log in to post comments