Guitar Tabs, Chords and Lyrics
Server problems seems to be fixed. Chordie has been experiencing problems with songs disappearing. These issues now seems to be fixed, but still verifying the fix. If you find anything strange, please email admin@chordie.com.


The Unnamed Feeling  Metallica

THE UNNAMED FEELING
as recorded by Metallica
Gtr I (A C G C F) - 'bass'
Q=144
[4/4] Gtr I
W W W W
 
 |----------|----------|----------|------|
 |----------|----------|----------|------|
 |----------|----------|----------|------|
 |----------|----------|----------|------|
 |----------|----------|----------|------|

W W W W
 
 |----------|----------|----------|------|
 |----------|----------|----------|------|
 |----------|----------|----------|------|
 |----------|----------|----------|------|
 |----------|----------|----------|------|

E E E E E E Q E E E E E E Q E E E E E E Q E E E E E E Q
 
 |----------------|----------------|----------------|----------------|
 |----------------|----------------|----------------|----------------|
 |----------------|----------------|----------------|----------------|
 |-0-0---0-0------|---0---0-0------|-0-0---0-0------|---0---0-0------|
 |----------------|----------------|----------------|----------------|

E E Q E E Q E E Q E E Q E E Q E E Q E E Q E E Q
 
 |---------------|---------------|---------------|---------------|
 |---------------|---------------|---------------|---------------|
 |---------------|---------------|---------------|---------------|
 |-0-0-2--0-0-2--|-0-0-2--0-0-2--|-0-0-2--0-0-2--|-0-0-2--0-0-2--|
 |---------------|---------------|---------------|---------------|

E E Q E E Q E E Q E E Q E E Q E E Q E E Q E E Q
 
 |---------------|---------------|---------------|---------------|
 |---------------|---------------|---------------|---------------|
 |---------------|---------------|---------------|---------------|
 |-0-0-2--0-0-2--|-0-0-2--0-0-2--|-0-0-2--0-0-2--|-0-0-2--0-0-2--|
 |---------------|---------------|---------------|---------------|

E E Q E E Q E E Q E E Q E E Q E E Q E E Q E E Q
 
 |---------------|---------------|---------------|---------------|
 |---------------|---------------|---------------|---------------|
 |---------------|---------------|---------------|---------------|
 |-0-0-2--0-0-2--|-0-0-2--0-0-2--|-0-0-2--0-0-2--|-0-0-2--0-0-2--|
 |---------------|---------------|---------------|---------------|

E E Q E E Q E E Q E E Q E E Q E E Q E E Q E E Q
 
 |---------------|---------------|---------------|---------------|
 |---------------|---------------|---------------|---------------|
 |---------------|---------------|---------------|---------------|
 |-0-0-2--0-0-2--|-0-0-2--0-0-2--|-0-0-2--0-0-2--|-0-0-2--0-0-2--|
 |---------------|---------------|---------------|---------------|

E E Q E E Q E E Q E E Q E E Q E E Q E E Q E E Q
 
 |---------------|---------------|---------------|---------------|
 |---------------|---------------|---------------|---------------|
 |---------------|---------------|---------------|---------------|
 |-0-0-2--0-0-2--|-0-0-2--0-0-2--|-0-0-2--0-0-2--|-0-0-2--0-0-2--|
 |---------------|---------------|---------------|---------------|

E E Q E E Q E E Q E E Q E E Q E E Q E E Q E E Q
 
 |---------------|---------------|---------------|---------------|
 |---------------|---------------|---------------|---------------|
 |---------------|---------------|---------------|---------------|
 |-0-0-2--0-0-2--|-0-0-2--0-0-2--|-0-0-2--0-0-2--|-0-0-2--0-0-2--|
 |---------------|---------------|---------------|---------------|

E E Q E E Q E E Q E E Q E E Q E E Q H H
 
 |---------------|---------------|---------------|-----------|
 |---------------|---------------|---------------|-----------|
 |---------------|---------------|---------------|-1----0----|
 |-0-0-2--0-0-2--|-0-0-2--0-0-2--|-0-0-2--0-0-2--|-----------|
 |---------------|---------------|---------------|-----------|

E E Q E E Q E E Q E E Q H H E E E E E E Q
 
 |---------------|---------------|-----------|----------------|
 |---------------|---------------|-----------|----------------|
 |---------------|---------------|-1----0----|----------------|
 |-0-0-2--0-0-2--|-0-0-2--0-0-2--|-----------|-0-0---0-0------|
 |---------------|---------------|-----------|----------------|

E E E E E E Q E E E E E E Q E E E E H Q Q H
 
 |----------------|----------------|--------------|------------|
 |----------------|----------------|--------------|------------|
 |----------------|----------------|--------------|-1----------|
 |---0---0-0------|-0-0---0-0------|---0---0-0----|----5--7----|
 |----------------|----------------|--------------|------------|

E E E E E E Q E E E E E E Q E E E E E E Q E E E E H
 
 |----------------|----------------|----------------|--------------|
 |----------------|----------------|----------------|--------------|
 |----------------|----------------|----------------|--------------|
 |----------------|----------------|----------------|--------------|
 |-3-3---3-3------|---3---3-3------|-3-3---3-3------|---3---3-3----|

Q Q H E E E E E E Q E E E E E E Q E E E E E E Q
 
 |------------|----------------|----------------|----------------|
 |------------|----------------|----------------|----------------|
 |-1----------|----------------|----------------|----------------|
 |----5--7----|----------------|----------------|----------------|
 |------------|-3-3---3-3------|---3---3-3------|-3-3---3-3------|

E E E E H Q Q H E E E E E E Q E E E E E E Q
 
 |--------------|------------|----------------|----------------|
 |--------------|------------|----------------|----------------|
 |--------------|-1----------|----------------|----------------|
 |--------------|----5--7----|----------------|----------------|
 |---3---3-3----|------------|-3-3---3-3------|---3---3-3------|

E E E E E E Q E E E E E E Q E E E E E E Q E E E E E E Q
 
 |----------------|----------------|----------------|----------------|
 |----------------|----------------|----------------|----------------|
 |----------------|----------------|----------------|----------------|
 |----------------|----------------|----------------|----------------|
 |-3-3---3-3------|---3---3-3------|-3-3---3-3------|---3---3-3------|

E E E E E E Q E E E E H Q Q H E E Q E E Q
 
 |----------------|--------------|------------|---------------|
 |----------------|--------------|------------|---------------|
 |----------------|--------------|-1----------|---------------|
 |----------------|--------------|----5--7----|-----2--0-0-2--|
 |-3-3---3-3------|---3---3-3----|------------|-3-3-----------|

E E Q E E Q E E Q E E Q E E Q E E Q E E Q E E Q
 
 |---------------|---------------|---------------|---------------|
 |---------------|---------------|---------------|---------------|
 |---------------|---------------|---------------|---------------|
 |-0-0-2--0-0-2--|-0-0-2--0-0-2--|-0-0-2--0-0-2--|-0-0-2--0-0-2--|
 |---------------|---------------|---------------|---------------|

E E Q E E Q E E Q E E Q H H E E E E E E Q
 
 |---------------|---------------|-----------|----------------|
 |---------------|---------------|-----------|----------------|
 |---------------|---------------|-1----0----|----------------|
 |-0-0-2--0-0-2--|-0-0-2--0-0-2--|-----------|-0-0---0-0------|
 |---------------|---------------|-----------|----------------|

E E E E E E Q E E E E E E Q E E E E H Q Q H
 
 |----------------|----------------|--------------|------------|
 |----------------|----------------|--------------|------------|
 |----------------|----------------|--------------|-1----------|
 |---0---0-0------|-0-0---0-0------|---0---0-0----|----5--7----|
 |----------------|----------------|--------------|------------|

H +Q. E E E Q Q E E E E +Q +Q. E E E Q Q E E
 
 |--------------|---------------|------------------|---------------|
 |--------------|---------------|------------------|---------------|
 |--------------|-3-------------|-3----------------|---------------|
 |--------------|-------------3-|---3-(3)--(3)---3-|-5-------------|
 |-3----(3)---1-|---------------|------------------|-------------1-|

E E +Q +Q. E H +Q. E E E Q Q E E E E +Q +Q. E
 
 |------------------|--------------|---------------|------------------|
 |------------------|--------------|---------------|------------------|
 |-3--------------3-|--------------|-3-------------|-3----------------|
 |------------------|--------------|-------------3-|---3-(3)--(3)---3-|
 |---1-(1)--(1)-----|-3----(3)---1-|---1-----------|------------------|

E E Q Q Q E E Q E E Q E E Q E E Q E E Q E E Q
 
 |--------------|---------------|---------------|---------------|
 |--------------|---------------|---------------|---------------|
 |--------------|---------------|---------------|---------------|
 |-5-5-------5--|-----2--0-0-2--|-0-0-2--0-0-2--|-0-0-2--0-0-2--|
 |--------------|-3-3-----------|---------------|---------------|

E E Q E E Q H H E E Q E E Q E E Q E E Q
 
 |---------------|-----------|---------------|---------------|
 |---------------|-----------|---------------|---------------|
 |---------------|-1----0----|---------------|---------------|
 |-0-0-2--0-0-2--|-----------|-0-0-2--0-0-2--|-0-0-2--0-0-2--|
 |---------------|-----------|---------------|---------------|

H H E E E E E E Q E E E E E E Q E E E E E E Q
 
 |-----------|----------------|----------------|----------------|
 |-----------|----------------|----------------|----------------|
 |-1----0----|----------------|----------------|----------------|
 |-----------|-0-0---0-0------|---0---0-0------|-0-0---0-0------|
 |-----------|----------------|----------------|----------------|

E E E E H Q Q H E E E E E E Q E E E E E E Q
 
 |--------------|------------|----------------|----------------|
 |--------------|------------|----------------|----------------|
 |--------------|-1----------|----------------|----------------|
 |---0---0-0----|----5--7----|----------------|----------------|
 |--------------|------------|-3-3---3-3------|---3---3-3------|

E E E E E E Q E E E E H Q Q H E E E E E E Q
 
 |----------------|--------------|------------|----------------|
 |----------------|--------------|------------|----------------|
 |----------------|--------------|-1----------|----------------|
 |----------------|--------------|----5--7----|----------------|
 |-3-3---3-3------|---3---3-3----|------------|-3-3---3-3------|

E E E E E E Q E E E E E E Q E E E E E E Q E E E E E E Q
 
 |----------------|----------------|----------------|----------------|
 |----------------|----------------|----------------|----------------|
 |----------------|----------------|----------------|----------------|
 |----------------|----------------|----------------|----------------|
 |---3---3-3------|-3-3---3-3------|---3---3-3------|-3-3---3-3------|

E E E E E E Q E E E E E E Q E E E E H Q Q H
 
 |----------------|----------------|--------------|------------|
 |----------------|----------------|--------------|------------|
 |----------------|----------------|--------------|-1----------|
 |----------------|----------------|--------------|----5--7----|
 |---3---3-3------|-3-3---3-3------|---3---3-3----|------------|

E E Q E E Q E E Q E E Q E E Q E E Q E E Q E E Q
 
 |---------------|---------------|---------------|---------------|
 |---------------|---------------|---------------|---------------|
 |---------------|---------------|---------------|---------------|
 |-----2--0-0-2--|-0-0-2--0-0-2--|-0-0-2--0-0-2--|-0-0-2--0-0-2--|
 |-3-3-----------|---------------|---------------|---------------|

E E Q E E Q E E Q E E Q E E Q E E Q H H
 
 |---------------|---------------|---------------|-----------|
 |---------------|---------------|---------------|-----------|
 |---------------|---------------|---------------|-1----0----|
 |-0-0-2--0-0-2--|-0-0-2--0-0-2--|-0-0-2--0-0-2--|-----------|
 |---------------|---------------|---------------|-----------|

E E E E E E Q E E E E E E Q E E E E E E Q E E E E H
 
 |----------------|----------------|----------------|--------------|
 |----------------|----------------|----------------|--------------|
 |----------------|----------------|----------------|--------------|
 |-0-0---0-0------|---0---0-0------|-0-0---0-0------|---0---0-0----|
 |----------------|----------------|----------------|--------------|

Q Q H H +Q. E E E Q Q E E E E +Q +Q. E
 
 |------------|--------------|---------------|------------------|
 |------------|--------------|---------------|------------------|
 |-1----------|--------------|-3-------------|-3----------------|
 |----5--7----|--------------|-------------3-|---3-(3)--(3)---3-|
 |------------|-3----(3)---1-|---------------|------------------|

E E Q Q E E E E +Q +Q. E H +Q. E E E Q Q E E
 
 |---------------|------------------|--------------|---------------|
 |---------------|------------------|--------------|---------------|
 |---------------|-3--------------3-|--------------|-3-------------|
 |-5-------------|------------------|--------------|-------------3-|
 |-------------1-|---1-(1)--(1)-----|-3----(3)---1-|---1-----------|

E E +Q +Q. E E E Q Q E E H +Q. E H +Q. E
 
 |------------------|---------------|--------------|--------------|
 |------------------|---------------|--------------|--------------|
 |-3----------------|---------------|--------------|--------------|
 |---3-(3)--(3)---3-|-2-2---------2-|-3----(3)-----|--------------|
 |------------------|---------------|------------3-|-3----(3)---1-|

E E Q Q E E E E +Q +Q. E E E Q Q E E E E +Q +Q. E
 
 |---------------|------------------|---------------|------------------|
 |---------------|------------------|---------------|------------------|
 |-3-------------|-3----------------|---------------|-3--------------3-|
 |-------------3-|---3-(3)--(3)---3-|-5-------------|------------------|
 |---------------|------------------|-------------1-|---1-(1)--(1)-----|

H +Q. E E E Q Q E E E E +Q +Q. E E E Q Q E E
 
 |--------------|---------------|------------------|---------------|
 |--------------|---------------|------------------|---------------|
 |--------------|-3-------------|-3----------------|---------------|
 |--------------|-------------3-|---3-(3)--(3)---3-|-2-2---------2-|
 |-3----(3)---1-|---1-----------|------------------|---------------|

H +Q. E E E Q H E E E E Q. E Q E E H
 
 |--------------|-------------|----------------|-------------|
 |--------------|-------------|----------------|-------------|
 |--------------|-------------|----------------|-------------|
 |-3----(3)---3-|-5-5---------|---0-----0----0-|-------------|
 |--------------|-------------|-1-----1--------|-1--1-1-1----|

E E S S E Q. E Q E E Q Q E E E E Q E E E E E E Q. E
 
 |------------------|--------------|----------------|-----------------|
 |------------------|--------------|----------------|-----------------|
 |------------------|--------------|----------------|-----------------|
 |---3-3-3---3----3-|--------------|----------------|---0-0---0----0--|
 |-1-------1--------|-3--3-3-3--3--|-1-1---1-1--1-1-|-1-----1---------|

Q E E H E E S S E Q Q E E E E Q Q E E S S E S S S S E E
 
 |-------------|-----------------|---------------|-----------------------|
 |-------------|-----------------|---------------|-----------------------|
 |-------------|--------------5--|---------------|-----------------------|
 |-------------|---3-3-3---3-----|---------------|-----------------------|
 |-1--1-1-1----|-1-------1-------|-5-----5----5--|-6-6-6-6-6-6-6-6-6-6-6-|

E E S S E S S S S E E E E E E E E Q E E E E E E Q E E E E E E Q
 
 |-----------------------|----------------|----------------|-----------------|
 |-----------------------|----------------|----------------|-----------------|
 |-----------------------|----------------|----------------|-----------------|
 |-5-5-5-5-5-5-5-5-5-5-5-|----------------|----------------|-----------------|
 |-----------------------|-3-3---3-3------|---3---3-3------|-3-3---3-3-------|

E E E E E E Q E E E E E E Q E E E E E E Q E E E E E E Q
 
 |----------------|----------------|----------------|----------------|
 |----------------|----------------|----------------|----------------|
 |----------------|----------------|----------------|----------------|
 |----------------|----------------|----------------|----------------|
 |---3---3-3------|-3-3---3-3------|---3---3-3------|-3-3---3-3------|

E E E E E E Q E E E E E E Q E E E E E E Q E E E E E E Q
 
 |----------------|----------------|----------------|----------------|
 |----------------|----------------|----------------|----------------|
 |----------------|----------------|----------------|----------------|
 |----------------|----------------|----------------|----------------|
 |---3---3-3------|-3-3---3-3------|---3---3-3------|-3-3---3-3------|

E E E E E E Q E E Q E E Q E E Q E E Q E E Q E E Q
 
 |----------------|---------------|---------------|---------------|
 |----------------|---------------|---------------|---------------|
 |----------------|---------------|---------------|---------------|
 |----------------|-----2--0-0-2--|-0-0-2--0-0-2--|-0-0-2--0-0-2--|
 |---3---3-3------|-3-3-----------|---------------|---------------|

E E Q E E Q E E Q E E Q E E Q E E Q E E Q E E Q
 
 |---------------|---------------|---------------|---------------|
 |---------------|---------------|---------------|---------------|
 |---------------|---------------|---------------|---------------|
 |-0-0-2--0-0-2--|-0-0-2--0-0-2--|-0-0-2--0-0-2--|-0-0-2--0-0-2--|
 |---------------|---------------|---------------|---------------|

E E Q E E Q E E Q E E Q E E Q E E Q E E Q E E Q
 
 |---------------|---------------|---------------|---------------|
 |---------------|---------------|---------------|---------------|
 |---------------|---------------|---------------|---------------|
 |-0-0-2--0-0-2--|-0-0-2--0-0-2--|-0-0-2--0-0-2--|-0-0-2--0-0-2--|
 |---------------|---------------|---------------|---------------|

E E E E E E Q W W W
 
 |----------------|----------|----------|------|
 |----------------|----------|----------|------|
 |----------------|----------|----------|------|
 |-0-0---0-0------|----------|----------|------|
 |----------------|----------|----------|------|

W H H E E E E E E E E Q E E Q E E
 
 |----------|-----------|-----------------|---------------|
 |----------|-----------|-----------------|---------------|
 |----------|-1----0----|-----------------|-1------0------|
 |----------|-----------|-3---------------|----0-0----0-0-|
 |----------|-----------|---3---3---3-3-3-|---------------|

E E E E E E E E Q E E Q E E E E E E E E E E Q E E Q E E
 
 |-----------------|---------------|-----------------|---------------|
 |-----------------|---------------|-----------------|---------------|
 |-----------------|-1------0------|-----------------|-1------0------|
 |-3---------------|----0-0----0-0-|-3---------------|----0-0----0-0-|
 |---3---3---3-3-3-|---------------|---3---3---3-3-3-|---------------|

E E E E E E E E E E E E E E E E Q. E Q Q E E E E E E E E
 
 |-----------------|-----------------|--------------|-----------------|
 |-----------------|-----------------|--------------|-----------------|
 |-1---0-----------|-1---0-----------|-1------0--0--|-----------------|
 |---0---0-0-----0-|---0---0-0-0---0-|------0-------|-3---------------|
 |-----------------|-----------------|--------------|---3---3---3-3-3-|

Q. E Q Q E E E E E E E E Q. E Q Q E E E E E E E E
 
 |--------------|-----------------|--------------|-----------------|
 |--------------|-----------------|--------------|-----------------|
 |-1------0--0--|-----------------|-1------0--0--|-----------------|
 |------0-------|-3---------------|------0-------|-3---------------|
 |--------------|---3---3---3-3-3-|--------------|---3---3---3-3-3-|

E E E E E E E E E E E E E E E E E E E E E E E E Q. E Q Q
 
 |-----------------|-----------------|-----------------|--------------|
 |-----------------|-----------------|-----------------|--------------|
 |-----------------|-----------------|-----------------|-1------0--0--|
 |-3---------------|-3---------------|-3---------------|------0-------|
 |---3---3---3-3-3-|---3---3---3-3-3-|---3---3---3-3-3-|--------------|

E E Q E E Q E E Q E E Q E E Q E E Q E E Q E E Q
 
 |---------------|---------------|---------------|---------------|
 |---------------|---------------|---------------|---------------|
 |---------------|---------------|---------------|---------------|
 |-0-0-2--0-0-2--|-0-0-2--0-0-2--|-0-0-2--0-0-2--|-0-0-2--0-0-2--|
 |---------------|---------------|---------------|---------------|

E E Q Q E E Q Q E E Q Q Q Q E E Q E E Q E E
 
 |---------------|--------------|--------------|---------------|
 |---------------|--------------|--------------|---------------|
 |---------------|--------------|--------------|---------------|
 |-0-0-2--2--0-0-|-2--2--0-0-2--|-2--2--2--0-0-|-2--0-0-2--0-0-|
 |---------------|--------------|--------------|---------------|

Q E E Q E E E E Q +E E Q E E H E E S S E Q +E E Q
 
 |---------------|-----------------|--------------|--------------------|
 |---------------|-----------------|--------------|--------------------|
 |---------------|-----------------|--------------|--------------------|
 |-2--0-0-2----0-|-----0--(0)-0----|------------3-|-3-3---3--(3)-3-----|
 |-----------1---|---1----------1--|-1-1-1----1---|-----1----------3---|

E E Q Q E E E E Q E E E E E E Q +E E Q E E H E E
 
 |---------------|----------------|-----------------|--------------|
 |---------------|----------------|-----------------|--------------|
 |---------------|----------------|-----------------|--------------|
 |---------------|--------------0-|-0---0--(0)-0----|------------3-|
 |-3-3-3--3--1-1-|---1-1--1-1-1---|---1----------1--|-1-1-1----1---|

S S E Q Q E E E E Q Q Q +E E E E E E E E E E Q +E E Q
 
 |-----------------|--------------|-------------------|------------------|
 |-----------------|--------------|-------------------|------------------|
 |----------5------|--------------|-------------------|------------------|
 |-3-3---3---------|--------------|---------5-------0-|-----0--(0)-0-----|
 |-----1-------5---|---5----5--6--|-(6)-5-6---6-5-1---|---1----------1---|

E E H E E S S E Q +E E Q E E Q Q E E E E Q E E E E
 
 |--------------|-------------------|---------------|-----------------|
 |--------------|-------------------|---------------|-----------------|
 |--------------|-------------------|---------------|-----------------|
 |------------3-|-3-3---3--(3)-3----|---------------|--------------0--|
 |-1-1-1----1---|-----1----------3--|-3-3-3--3--1-1-|---1-1--1-1-1----|

E E Q +E E Q E E H E E S S E Q Q E E E E Q Q E E
 
 |-----------------|--------------|-----------------|----------------|
 |-----------------|--------------|-----------------|----------------|
 |-----------------|--------------|----------5------|----------------|
 |-0---0--(0)-0----|------------3-|-3-3---3---------|----------------|
 |---1----------1--|-1-1-1----1---|-----1-------5---|---5----5--6-6--|

S S E S S S S E E E E S S E S S S S E E Q +H +E E E E
 
 |-----------------------|----------------------|------------------|
 |-----------------------|----------------------|------------------|
 |-----------------------|----------------------|--------------3---|
 |-------------------5-5-|-5-5-5-5-5-5-5-5-5----|------------------|
 |-6-6-6-6-6-6-6-6-6-----|-------------------3--|-(3)----(3)-1-----|

H E E E E +H +E E E E H E E E E +H +E E Q
 
 |--------------|------------------|--------------|-----------------|
 |--------------|------------------|--------------|-----------------|
 |----------3---|------------------|----------3---|------------3----|
 |--------3---3-|-(3)----(3)-3-5---|--------------|-----------------|
 |--------------|------------------|--------1---1-|-(1)----(1)---3--|

[+B] [+E] [E] [E] [E] [B] [E] [E] [E] [E] [+B] [+E] [E] [E] [E] [B] [E] [E] [E] [E]  
 
 |------------------|--------------|------------------|--------------|
 |------------------|--------------|------------------|--------------|
 |--------------3---|----------3---|------------------|--------------|
 |------------------|--------3---3-|-(3)----(3)-3-5-5-|--------------|
 |-(3)----(3)-1---1-|--------------|------------------|--------3-3---|

[B] [E] [E] [E] [E] [B] [E] [E] [E] [E]  
 
 |--------------|--------------*|
 |--------------|--------------*|
 |--------------|--------------*|
 |--------------|--------------*|
 |--------3-3-3-|--------3-3---*|

Duration Legend
 
 ---------------
 W - whole; H - half; Q - quarter; E - 8th; S - 16th; T - 32nd; X - 64th; a - acciaccatura

+ - note tied to previous; . - note dotted; .. - note double dotted
Uncapitalized letters represent notes that are staccato (1/2 duration)
Irregular groupings are notated above the duration line
Duration letters will always appear directly above the note/fret number it represents the
duration for. Duration letters with no fret number below them represent rests. Multi-
bar rests are notated in the form Wxn, where n is the number of bars to rest for. Low
melody durations appear below the staff
Tablature Legend
 
 ----------------

h - hammer-on
p - pull-off
b - bend
pb - pre-bend
r - bend release (if no number after the r, then release immediately)
/\ - slide into or out of (from/to "nowhere")
s - legato slide
S - shift slide
- natural harmonic
(n) - artificial harmonic
n(n) - tapped harmonic
~ - vibrato
tr - trill
T - tap
TP - trem. picking
PM - palm muting
\n/ - tremolo bar dip; n = amount to dip
\n - tremolo bar down
n/ - tremolo bar up
/n\ - tremolo bar inverted dip
= - hold bend; also acts as connecting device for hammers/pulls
- volume swell (louder/softer)
x - on rhythm slash represents muted slash
o - on rhythm slash represents single note slash
Misc Legend
 
 -----------

| - bar
|| - double bar
||o - repeat start
o|| - repeat end
*| - double bar (ending)
: - bar (freetime)
$ - Segno
& - Coda
Tempo markers - = BPM(8/16=s8/s16), where s8 = swing 8ths, s16 = swing 16ths

Important: The song above is NOT stored on the Chordie server. The original song is hosted at www.guitartabs.cc. Chordie works as a search engine and provides on-the-fly formatting. Chordie does not index songs against artists'/composers' will. To remove this song please click here.

Text color:
Chord color:
Chord grids: 
Font size:    
Page size: 

B E
Rate #1 of 2 versions

Login - add to songbook

SHARE PAGE  



You need to log in to post comments