Guitar Tabs, Chords and Lyrics
Major upgrade!! After one year development the new version of Chordie is now online! Please give feedback.


Wasting My Hate  Metallica

================================================================================
M E T A L L I C A
[-] 
W A S T I N G M Y H A T E
================================================================================
LOAD
(c) Elektra Records (1996)
http://www.metallica.com/
Tune Down a 1/2 Step
[5-String Bass] 
[A#] [D#] [G#] [C#] [F#] 
Tempo = 80 BPM
Time Signature = 4/4
 
 -----------------------------

Transcribed by
PADDY MCMULLAN
pmtabs (@t) gmail [dot] com
Version 1.0
11th March 2012
 
 -----------------------

Tablature Symbols Used:
(/) - Legato Slide (Blank space indicates length of slide)
\ - Slide Down to/Down From
/ - Slide Up to/Up From
( ) - Ghost Note/Tied Note/Implied Note
REST - Rest and Sustain Rest for Duration of Blank Space
The word "REST" will be used sparingly, i.e. only once per riff
5h7 - Hammer-On
7p5 - Pull-Off
================================================================================
Intro: [ Time 00:00 - 00:31 ]
================================================================================
Rest for 9 bars
================================================================================
Pre-Verse 1: [ Time 00:31 - 00:55 ]
================================================================================
 
 //-----------------Segue----------------------------\\
 | |---------------| |--------------------------------||---------------------|
 |2|--R- -------|4|--------------------------------||----- --|
 |/|--E- -0-5-7-|/|-(5)-0-5-7--0-5-7--0-5-7--0-5-7-||----- --|
 |4|--S- -------|4|--------------------------------||--0-- --|
 | |--T------------| |--------------------------------||---------------------|
 |---------|---------|---------------------||
 |-- --|-- --|-- ---||
 |-- --|-- --|-- -7-||
 |-- --|-- --|-- -0-||
 |---------|---------|---------------------||

Pre-Verse Begins
 
 ||---------------------------------|-----------------------------------| |
 ||---------------------------------|-----------------------------------|*|
 ||-(7)--7--7--6--5-5-5-------------|-----------------------------------| |
 ||-(0)--0--0-----0-----7-7-7-6-6-5-|--5-5-5-5-5-4-4-3--5-5-0-3-5-3h5-0-|*| x 4
 ||---------------------------------|-----------------------------------| |

================================================================================
Verse 1: [ Time 00:55 - 01:19 ]
================================================================================
 
 ||----------------------------------|----------------------------------|
 ||----------------------------------|----------------------------------|
 ||----------------------------------|----------------------------------|
 ||--0-0-0-0-0-0-0-0-0-0-0-0-0-0-0-1-|--0-0-0-0-0-0-0-0-0-0-0-0-0-0-0-1-|
 ||----------------------------------|----------------------------------|
 |----------------------------------|---------------------------------|
 |----------------------------------|---------------------------------|
 |----------------------------0-5-7-|--(5)-0-5-7--0-5-7--0-5-7--0-5-7-|
 |--0-0-0-0-0-0-0-0-0-0-0-0-0-------|---------------------------------|
 |----------------------------------|---------------------------------|
 |----------------------------------|------------------------------------------|
 |----------------------------------|------------------------------------------|
 |----------------------------------|------------------------------------------|
 |-0-0-0-0-0-0-0-0-0-0-0-0-0-0-0-10-|-10-10-10-10-10-10-10\ 5-5-5-5-5-5-5-5\ 1-|
 |----------------------------------|------------------------------------------|
 |----------------------------------|----------------------------------||
 |----------------------------------|----------------------------------||
 |----------------------------0-5-7-|--(5)-0-5-7--0-5-7--5---5---------||
 |--0-0-0-0-0-0-0-0-0-0-0-0-0-------|----------------------7---7-5-5-3-||
 |----------------------------------|----------------------------------||

================================================================================
Chorus 1: [ Time 01:19 - 01:42 ]
================================================================================
 
 ||--------------------------------|------------------------------------------|
 ||--------------------------------|------------------------------------------|
 ||--------------------------------|--------------------------------------2---|
 ||--0--0--0-0-0-0-0-0-0--0-0-0-10-|--10-10-10-10-10-10-10\ 5--5-5-0-3 h5---0-|
 ||--------------------------------|------------------------------------------|
 |---------------------------------|----------------------------------|
 |---------------------------------|----------------------------------|
 |----------------5--------7-7-7-5-|--5--5-5-5-5-7\ --------------2---|
 |-(0)-0-0-0-5 h7---0---0----------|----------------5--5-5-0-3 h5---0-|
 |---------------------------------|----------------------------------|
 |--------------------------------|----------------------------------|
 |--------------------------------|----------------------------------|
 |----------------5--------7 \--|------------------------------2---|
 |-(0)-0-0-0-5 h7---0---0---------|--3--3--3-3-3-3h5---5 p0-3 h5---0-|
 |--------------------------------|----------------------------------|
 |-------------------|-------------------||
 |-------------------|-------------------||
 |-------------------|-------------------||
 |--(0)--------------|--(0)--------------||
 |-------------------|-------------------||

================================================================================
Pre-verse 2: Repeat Pre-verse 1 [ Time 01:42 - 1:54 ]
================================================================================
================================================================================
Verse 2: Repeat Verse 1 with the following variations [ Time 01:54 - 02:18 ]
================================================================================
Play Verse 1 as is, replacing the last bar with the following:
 
 |-----------------------------------||
 |-------------------5---------------||
 |-(7)--0-5-7--0-5-7---7-5-5---------||
 |---------------------------7-7-5-0-||
 |-----------------------------------||

================================================================================
Chorus 2: Repeat Chorus 1 with the following variations [ Time 02:18 - 02:48 ]
================================================================================
Repeat Chorus 1 as is except for the last two bars which are replaced with the
following:
 
 |-------------------|-------------------|-------------------|
 |-------------------|-------------------|-------------------|
 |-------------------|-------------------|-------------------|
 |--(0)--------------|--(0)--------------|--0----------------|
 |-------------------|-------------------|-------------------|
 |-------------------||
 |-------------------||
 |-------------------||
 |--(0)--------------||
 |-------------------||

================================================================================
Break: [ Time 02:48 - 02:59 ]
================================================================================
 
 ||----------------------------------| |
 ||----------------------------------|*|
 ||--0-5-7-0-5-7-0-5-7-0-5-7-0-5-----| | x 3
 ||----------------------------------|*|
 ||------------------------------6-6-| |
 |----------------------------------||
 |----------------------------------||
 |----------------------------------||
 |--0-0-0-0-0-0-0-0-0-0-0-0-0-0-1-1-||
 |----------------------------------||

================================================================================
Verse 3: Repeat Verse 1 with the following variations [ Time 02:59 - 03:23 ]
================================================================================
Repeat Verse 1 as in except for the final bar, which is replaced with the
following:
 
 |----------------------------------||
 |----------------------------------||
 |-(7)--0-5-7--0-5-7--5---5---------||
 |----------------------7---7-7-5-3-||
 |----------------------------------||

================================================================================
Chorus 3: Repeat Chorus 1 with the following variations [ Time 03:23 - 03:57 ]
================================================================================
Repeat Chorus 1 as is replacing the last two bars with the following:
 
 |-------------------|-------------------|-------------------|
 |-------------------|-------------------|-------------------|
 |-------------------|-------------------|-------------------|
 |--(0)--------------|--(0)--------------|--0----------------|
 |-------------------|-------------------|-------------------|
 |-------------------|----------------------------------||
 |-------------------|----------------------------------||
 |-------------------|--0-5-7-0-5-7-0-5-7-0-5-7-0-5-----||
 |--(0)--------------|----------------------------------||
 |-------------------|------------------------------6-6-||

================================================================================
[End]================================================================================
Tab summary: Intro
Pre-verse 1
Verse 1
Chorus 1
Pre-verse 2
Verse 2
Chorus 2
Break
Verse 3
Chorus 3
END

Important: The song above is NOT stored on the Chordie server. The original song is hosted at www.guitartabs.cc. Chordie works as a search engine and provides on-the-fly formatting. Chordie does not index songs against artists'/composers' will. To remove this song please click here.

Text color:
Chord color:
Chord grids: 
Font size:    
Page size: 

A# C# D# F# G#
Rate #1 of 12 versions

Login - add to songbook

SHARE PAGE  




You need to log in to post comments