Guitar Tabs, Chords and Lyrics
Major upgrade!! After one year development the new version of Chordie is now online! Please give feedback.


Man in the Mirror  Michael Jackson

song:man in the mirror
artist:michael jackson
Tabbed by:nightstud
Email:ounces@hotmail.co.uk
Tuning:standard
I personally play the song like this enjoy!
This is the picking style used relative to the chord.
[G] [Gmaj9] [Em] [add9] [D] 
 
 e|-------3----------------3----------------3----------------2---------------|
 B|-------0----------------0----------------0----------------3---------------|
 G|----0-----0----------0-----0----------0-----0----------2-----2------------|
 D|----------------------------------------------------0---------------------|
 A|--------------------------------------------------------------------------|
 E|-3----------------2----------------0--------------------------------------|

[C] [C] [D] [D]  
 
 e|-------0----------------0----------------2-----------------2--------------|
 B|-------1----------------1----------------3-----------------3--------------|
 G|----0-----0----------0-----0----------2-----2-----------2-----2-----------|
 D|-----------------------------------0----------------0---------------------|
 A|-3----------------3-------------------------------------------------------|
 E|--------------------------------------------------------------------------|

hope this helps!!!
[G] [Gmaj9] [Em] [add9] [D] [C] [C] [D] [D] 
I'm gonna make a change, for once in my life
[G] [Gmaj9] [Em] [add9] [D] [C] [C] [D] [D] 
It's gonna feel real good, gonna make a difference, gonna make it right
[G] [Gmaj9] [Em] [add9] [D] [C] [C] 
As I turn up the corner road my favorite winter coat this wind is blowin' my
[D] [D]  
[mind]  
[G] [Gmaj9] [Em] [add9] 
I see the kids in the street, with not enough to eat
[D] [D] [C] [C] [D] [D] 
Who am I, to be blind? Pretending not to see their needs
Bridge:
[C] [C] [D] [D]  
A summer's disregard, a broken bottle top
[G] [Gmaj9] [Em] [add9] [D]  
And a one man's soul
[C] [C] [D] [D] 
They follow each other on the wind ya' know
[C] [C] [D]  
Cause they got nowhere to go
[D] [G]  
That's why I want you to know
Chorus:
[Gmaj9] [Em] [add9] [D]  
I'm starting with the man in the mirror
[G] [Gmaj9] [Em] [add9] [D]  
I'm asking him to change his ways
[G] [Gmaj9] [Em] [add9] [D]  
And no message could have been any clearer
[C] [C]  
If you wanna make the world a better place
[D] [D] [G] 
Take a [Gmaj9]look at yourself, and then make a change
(this goes somewhere in the song after the chorus)
[Em] [add9] [D] [C] [C] [D] 
Na,na,na na,na,na na na na na.....oh ho.

Important: The song above is NOT stored on the Chordie server. The original song is hosted at www.guitartabs.cc. Chordie works as a search engine and provides on-the-fly formatting. Chordie does not index songs against artists'/composers' will. To remove this song please click here.

Text color:
Chord color:
Chord grids: 
Font size:    
Page size: 

C D Em G Gmaj9
Rate #2 of 23 versions

Login - add to songbook

SHARE PAGE  




You need to log in to post comments