Guitar Tabs, Chords and Lyrics
Major upgrade!! After one year development the new version of Chordie is now online! Please give feedback.


Closer   Mike Oldfield

 
 [----------------|--------------|----------------|--------------|-----]
 [-b--rb-----s----|--------s-----|--h--p----------|-br------s----|-----]
 [-9--9--7-7-\4-4-|----7--9\11-9-|-9-11-9----9-11-|-9--7-7-7\4-4-|--s--]
 [----------------|-7------------|--------12------|--------------|-4\7-]
 [----------------|--------------|----------------|--------------|-----]
 [----------------|--------------|----------------|--------------|-----]
 [-----------------]
 [--s--h--p--------]
 [-7\9--11-9-------]
 [-----------12-12-]
 [-----------------]
 [-----------------]
 --------------

 


 00:21


 

 
 [--s--------br------s---|-------b-------h-p------]
 [-3\-10----10--10--7\10-|-10---10--10--7-8-7-----]
 [-------11--------------|----7---------------9-9-]
 [-----------------------|------------------------]
 [-----------------------|------------------------]
 [-----------------------|------------------------]
 [---------------------|--------------------]
 [--h---7-------s------|-----s--h--p--------]
 [-7-9-----9-7-4\7-4-4-|----7\9--11-9-------]
 [---------------------|-7------------12-12-]
 [---------------------|--------------------]
 [---------------------|--------------------]
 --------------

 


 00:43


 

 
 [---------|----------------------|---------|---------------------------]
 [----h----|--h--p--------s-------|----h----|--h--p--------s---10-8-7---]
 [---7-9-9-|-9-11-9----9-9\12-----|---7-9-9-|-9-11-9----9-9\12--------9-]
 [-7-------|--------12--------7-7-|-7-------|--------12-----------------]
 [---------|----------------------|---------|---------------------------]
 [---------|----------------------|---------|---------------------------]\

 


 X2


 00:54 /


 

 
 [----------------------------|-----------------------------------------]
 [--------h--p--------s-------|-----s-----------------------------------]
 [-7-9-9---11-9----9-9\12-----|-7-7-\4----------------------------------]
 [--------------12--------7-7-|--------7-7------------------------------]
 [----------------------------|-----------------------------------------]
 [----------------------------|-----------------------------------------]
 --------------

 


 01:27


 

 
 [-------br------s---|-------b-------h-p------]
 [-10---10--10--7\10-|-10---10--10--7-8-7-----]
 [----7--------------|----7---------------9-9-]
 [-------------------|------------------------]
 [-------------------|------------------------]
 [-------------------|------------------------]
 [---------------------|--------------------]
 [--h---7-------s------|-----s--h--p--------]
 [-7-9-----9-7-4\7-4-4-|----7\9--11-9-------]
 [---------------------|-7------------12-12-]
 [---------------------|--------------------]
 [---------------------|--------------------]
 --------------

 


 01:49


 

 
 [----------------|--------------|----------------|--------------|-----]
 [-b--rb-----s----|--------s-----|--h--p----------|-br------s----|-----]
 [-9--9--7-7-\4-4-|----7--9\11-9-|-9-11-9----9-11-|-9--7-7-7\4-4-|--s--]
 [----------------|-7------------|--------12------|--------------|-4\7-]
 [----------------|--------------|----------------|--------------|-----]
 [----------------|--------------|----------------|--------------|-----]
 [-----------------]
 [--s--h--p--------]
 [-7\9--11-9-------]
 [-----------12-12-]
 [-----------------]
 [-----------------]
 --------------

 


 02:10


 

 
 [--s--------br------s---|-------b-------h-p------]
 [-3\-10----10--10--7\10-|-10---10--10--7-8-7-----]
 [-------11--------------|----7---------------9-9-]
 [-----------------------|------------------------]
 [-----------------------|------------------------]
 [-----------------------|------------------------]
 [---------------------|--------------------]
 [--h---7-------s------|-----s--h--p--------]
 [-7-9-----9-7-4\7-4-4-|----7\9--11-9-------]
 [---------------------|-7------------12-12-]
 [---------------------|--------------------]
 [---------------------|--------------------]
 --------------

 


 02:33


 

 
 [----------------|--------------------]
 [-b--rb-----s----|-----s--h--p--------]
 [-9--9--7-7-\4-4-|----7\9--11-9-------]
 [----------------|-7------------12-12-]
 [----------------|--------------------]
 [----------------|--------------------]


Important: The song above is NOT stored on the Chordie server. The original song is hosted at www.guitartabs.cc. Chordie works as a search engine and provides on-the-fly formatting. Chordie does not index songs against artists'/composers' will. To remove this song please click here.

This song is displayed as text-only. Transposing and tuning is only available for chordpro-songs.
Rate #1 of 2 versions

Jango Player

Login - add to songbook

SHARE PAGE  




You need to log in to post comments