Guitar Tabs, Chords and Lyrics
Major upgrade!! After one year development the new version of Chordie is now online! Please give feedback.


From the Ashes   Mike Oldfield

 
 [---------------------|-------------------------------|------------------]
 [---------------------|-------------------------------|------------------]
 [--------------h------|-------------------------------|---------------h--]
 [-2---0-2-3---3-5-3-2-|---------------------0-----0-2-|---0-2--0-2-3-3-5-]
 [---------------------|-3-2-0---0-2-3---2-3-----3-----|-3----------------]
 [---------------------|-------------------------------|------------------]

 


 


 Guitar 1 00:38


 

 
 [-----|-------------------------------------|---------------------]
 [-----|-------------------------------------|---------------------]
 [-----|-----------------h-------------------|---------------------]
 [-3-2-|----------------0-2-0----h-----------|------------0----0-2-]
 [-----|-3-2-0---0-2-3---------3--5-5--------|-0-2-3--2-3----3-----]
 [-----|------------------------------5--3-5-|---------------------]

 


 


 Guitar 1


 00:46 01:01


 

 
 [------------------------|-------------------|-----------------------------]
 [------------------------|-------------------|-----------------------------]
 [-------h----------------|-------------------|-s---h----s-----------h------]
 [-2-7--7-9-7-5-----------|-----------0---0-2-|2/7-7-9-7-/5--7-9-9--7-9-5---]
 [--------------5--7-8-7--|0-2-3--2-3---3-----|---------------------------7-]
 [------------------------|-------------------|-----------------------------]

 


 


 Guitar 1


 01:09


 

 
 [------------------------------------|-------------------------------------]
 [------------------------------------|-------------------------------------]
 [-------------------h----------------|------------h------------------------]
 [---0-2---0--2--3--3-5-3-2-----------|-----------0-2--0---h----------------]
 [-3-------------------------3--2--0--|-0--2--3-----------3-5--5------------]
 [------------------------------------|----------------------------5---3--5-]

 


 | |


 |Guitar 2 - low distorted - Fade in with vol |


 | br h |


 

 
 [----12--10-12-13--13-13-12----------|----------10-12-10----10-10----------]
 [---------------------------13-12-10-|-10-12-13----------13-------10----10-]
 [------------------------------------|-------------------------------12----]
 [------------------------------------|-------------------------------------]
 [------------------------------------|-------------------------------------]
 [------------------------------------|-------------------------------------]

 


 


 [ Tab from: bttp://www.guitartabs.cc/tabs/m/mike_oldfield/from_tbe_asbes_tab.btml ] 


 Guitar 1


 01:25


 

 
 [------------------------------------------------------------]
 [------------------------------------------------------------]
 [---------------------------------s-----h--p-----------------]
 [-------0-------0--2---0-2-4-----4/9---9-11-9--7-------------]
 [-2--4-------4------------------------------------7---9-10-9-]
 [------------------------------------------------------------]

 


 | |


 |Guitar 2 - Distorted s h |


 

 
 [---h---------h---------h---14--14/19-19-21-19---p-----br----]
 [-12-14-15--14-15-17--15-17--------------------22-17--17-----]
 [------------------------------------------------------------]
 [------------------------------------------------------------]
 [------------------------------------------------------------]
 [------------------------------------------------------------]

 


 


 Guitar 1


 

 
 [--------------------------------------------------------------------------]
 [--------------------------------------------------------------------------]
 [------------------------------------s----h--p-----------------------------]
 [-------0----------0--2---0--2--4---4/9--9-11-9---7-9-11-11--9-11-7--------]
 [-2--4---------4----------------------------------------------------9------]
 [--------------------------------------------------------------------------]

 


 | |


 |Guitar 2 s h b p |


 

 
 [---h--h---------h---------h---14--14/19-19-21-19--17-19-21-19-19-21-17-14-]
 [-14-15-17-15--14-15-17--15-17---------------------------------------------]
 [--------------------------------------------------------------------------]
 [--------------------------------------------------------------------------]
 [--------------------------------------------------------------------------]
 [--------------------------------------------------------------------------]
 ---------------------------------

 


 Keyboard break


 ***************


 

 
 ---------------------------------

 


 Guitar 1


 02:02


 

 
 [--------------]
 [-----1------5-]
 [---2---2------]
 [-2-------2----]
 [--------------]
 [--------------]

 


 


 This bit is tricky not 100% on this part


 TRILL..........


 Guitar 1 - Distorted p p p s


 

 
 [---------------------------17--------20---17-20--20-17-20-17-20-17---20-/-]
 [------------13---17-----17--------22--------------------------------------]
 [---------------------17--------21-----------------------------------------]
 [--------------------------------------------------------------------------]
 [--------------------------------------------------------------------------]
 [--------------------------------------------------------------------------]

 


 


 Guitar 2 - Distorted TRILL.......... s


 

 
 [------------8---12-----12-17-----17-20----17-20----p-----p-----p-----12-/-]
 [--------------------13--------17-----------------13-11-13-11-13-11--------]
 [--------------------------------------------------------------------------]
 [--------------------------------------------------------------------------]
 [--------------------------------------------------------------------------]
 [--------------------------------------------------------------------------]


Important: The song above is NOT stored on the Chordie server. The original song is hosted at www.guitartabs.cc. Chordie works as a search engine and provides on-the-fly formatting. Chordie does not index songs against artists'/composers' will. To remove this song please click here.

This song is displayed as text-only. Transposing and tuning is only available for chordpro-songs.
Rate #1 of 3 versions

Login - add to songbook

SHARE PAGE  



You need to log in to post comments