Guitar Tabs, Chords and Lyrics
Major upgrade!! After one year development the new version of Chordie is now online! Please give feedback.


I Give Myself Away  Mike Oldfield

Artist - Mike Oldfield
************************
Song - I Give Myself Away
***************************
Album - Man On The Rocks
**************************
Tabbed By - Ayreon77
**********************
First few parts are organ, here is the chords until the acoustic comes in.
CHORUS
*******
I give myself [A]away
[E] I give myself [F#m]away, to [E]you com[D]pletley
I give myself [A]away
[E] I give myself [F#m]away, it's [E]true be[D]live me
 
 -----------------------------------------------------------

VERSE 1
********
Here [E]I [A]am, here I [E]stand
All my [Bm]life is in your [E]hands
And I'm [F#m]longing, to [E]see
What my [Bm]life was meant to [E]be
 
 -----------------------------------------------------------

CHORUS
*******
I give myself [A]away, [E]away
I give myself [A]away, to [E]you com[D]pletley
 
 -----------------------------------------------------------

BRIDGE
*******
My [A]life is not my own
To [E]you I belong
I [F#m]give myself, I [A]give myself, to [D]you
[A]My old life is gone
To [E]you I belong
I [F#m]give myself, I [A]give myself, it's [D]true
 
 -----------------------------------------------------------

CHORUS - Acoustic Guitar Comes In
*******
Give myself [A]away
[E] I give myself [F#m]away, to [E]you com[D]pletley
I give myself [A]away, [E]away
I give myself [F#m]away, it's [E]true be[D]live me
 
 -----------------------------------------------------------

VERSE 2
********
Here [E]I [A]am, here I [E]stand
All my [Bm]life is in your [E]hands
And I'm [F#m]longing, to [E]see
How my l[Bm]ife is meant to [E]be
[ Tab from: bttp://www.guitartabs.cc/tabs/m/mike_oldfield/i_give_myself_away_crd.btml ] 
 
 -----------------------------------------------------------

BRIDGE
*******
My [A]life is not my own
To [E]you I belong
I [F#m]give myself, I [A]give myself, to [D]you
[A]My old life is gone
To [E]you I belong
I [F#m]give myself, I [E]give myself, to [D]you
I give myself [A]away
 
 -----------------------------------------------------------

03:22
SOLO - A E F#m D F#m E D X2
*****
 
 [----------9-9-9-|------7-7-7-7-|--------------------------]
 [-------s--------|--s-----------|------7-10-10---10-7-10-7-]
 [--h---2\9-------|-2\9----------|-6-9----------------------]
 [-0-2------------|--------------|--------------------------]
 [----------------|--------------|--------------------------]
 [----------------|--------------|--------------------------]
 [---s---14-14-14--br---------|---h--p---------------|-------------]
 [-10\14----------17-17-15-14-|-14-15-14-------------|------p------]
 [----------------------------|----------16-14-16----|-16-16-14-16-]
 [----------------------------|-------------------14-|-------------]
 [----------------------------|----------------------|-------------]
 [----------------------------|----------------------|-------------]
 [------------------|-------------------|--s---------|---p------------------]
 [---s--------------|-----------b-------|-5\17-17-17-|-15-14---p-------b----]
 [-14\-14-14~~~~~~~-|---------7-7~~~~~~-|------------|-------16-14-16-16-16-]
 [-14\-14-14~~~~~~~-|--h-s--7-----------|------------|----------------------]
 [------------------|-5-7\9-------------|------------|----------------------]
 [------------------|-------------------|------------|----------------------]

[s]  
 
 [--b---------|-9\14-14-14-14-12-10-9|--b--rp-----|------------9------------]
 [-12---------|----------------------|-12----10-12|10-12-10-12---10--7-7----]
 [----11--9-11|----------------------|------------|----------------------9~~]
 [------------|----------------------|------------|-------------------------]
 [------------|----------------------|------------|-------------------------]
 [------------|----------------------|------------|-------------------------]
 -----------------------------------------------------------

VERSE 3
********
Here [E]I [A]am, here I [E]stand
All my [Bm]life is in your [E]hands
All my [F#m]dreams, all my [E]plans
I just [Bm]place them in your [E]hands
 
 -----------------------------------------------------------

BRIDGE
*******
My [A]life is not my own
To [E]you I belong
I [F#m]give myself, I [E]give myself, to [D]you
[E] [A]My old life is gone
To [E]you I belong
I [F#m]give myself, I [E]give myself, to [D]you
I give myself [A]away
Another Great Track
ENJOY............

Important: The song above is NOT stored on the Chordie server. The original song is hosted at www.guitartabs.cc. Chordie works as a search engine and provides on-the-fly formatting. Chordie does not index songs against artists'/composers' will. To remove this song please click here.

Text color:
Chord color:
Chord grids: 
Font size:    
Page size: 

A Bm D E F#m
Rate #1 of 2 versions

Login - add to songbook

SHARE PAGE  



You need to log in to post comments