Guitar Tabs, Chords and Lyrics
Major upgrade!! After one year development the new version of Chordie is now online! Please give feedback.


More Like Her  Miranda Lambert

 
 -------------------------------------------------------------------------------

MORE LIKE HER ? Miranda Lambert
 
 -------------------------------------------------------------------------------

Tabbed by: Steph
Email: clichedplatitude@hotmail.com
Tuning: capo on 2nd fret
Note: When chords are repeated it?s to indicate an
accent on the bass/root string of that chord
Intro:
[A] [D] [A] [D] [A] [E] [A]  
 
 e|---------------------|
 B|---------------------|
 G|---------------------|
 D|-----2---------0-----|
 A|-2/4---0----------0--|
 E|---------------------|

Verse 1:
She?s [A]beautiful in her [D]simple, little [A]way
She don't [D]have too much to [A]say when she gets [E]mad
She u[A]nderstands she don?t let [D]go of any[A]thing
[D]Even when the [A]pain gets really [E]bad
I [E]guess I should've been [D]more like [A]that
Verse 2:
You [A]had it all for a [D]pretty little [A]while
And some[D]how you made me [A]smile when I was [E]sad
You [A]took a chance on a [D]bruised and beaten [A]heart
Then you [D]realized you [A]wanted what you [E]had
I [E]guess I should've been [D]more like [A]that
Chorus:
I should have [D]held on to my [E]pride
I should have [A]never let you [D]lie
I guess you [D]got what you de[E]serve
I [E]guess I should've been [D]more like [A]her
Interlude:
[(A)] [D] [A] [D] [A] [E] [A]  
 
 e|--------------------------------------|
 B|--------------------------------------|
 G|--------------------------------------|
 D|----0-2/4-2-----0-2/4-4-2-------------|
 A|--4-----------4------------2--0-------|
 E|--------------------------------------|

Verse 3:
For[A]giving you, she?s [D]stronger than I [A]am
You don't [D]look much like a [A]man from where I?m [E]at
It's [A]plain to see desper[D]ation showed its [A]truth
You love [D]her and she loves [A]you with all she [E]has
I [E]guess I should've been [D]more like [A]that
Chorus:
I should have [D]held on to my [E]pride
I should have [A]never let you [D]lie
I guess you [D]got what you de[E]served
I [E]guess I should've been [D]more like [A]her
Out:
She?s [A]beautiful in her [D]simple, little [A]way

Important: The song above is NOT stored on the Chordie server. The original song is hosted at www.guitartabs.cc. Chordie works as a search engine and provides on-the-fly formatting. Chordie does not index songs against artists'/composers' will. To remove this song please click here.

Text color:
Chord color:
Chord grids: 
Font size:    
Page size: 

A D E
Rate #0 of 8 versions

Jango Player

Login - add to songbook

SHARE PAGE  




You need to log in to post comments