Guitar Tabs, Chords and Lyrics
Server problems seems to be fixed. Chordie has been experiencing problems with songs disappearing. These issues now seems to be fixed, but still verifying the fix. If you find anything strange, please email admin@chordie.com.


Zombie  Miser

Song: Zombie
Artist: Miser
CD: Colors
Miser's Website:
http://www.miserland.com/band.htm
Tuning:
eb
[Bb]  
[Gb]  
[Db]  
[Ab]eb
Legend:
/ = slide
PM = palm mute
h = hammer on
p = pull off
~ = let ring
this is my first tab so hopefully you guys go light on me. this is an awsome cover by
of the Cranberies song Zombie.
*Intro pt1
(Guitar 1)
 
 eb|-4-4-4-4-7-7-7-7-5-5-5-5-2-2-2-2-----------------------------|
 Bb|--5-5-5-5-5-5-5-5-5-5-5-5-5-5-5-5----------------------------|
 Gb|-------------------------------------------------------------|
 Db|-------------------------------------------------------------|
 Ab|-------------------------------------------------------------|
 Eb|-------------------------------------------------------------| x2

(Guitar 2)
 
 eb|----------------------------------------------------------------|
 Bb|----------------------------------------------------------------|
 Gb|-----------------5-5-5-5-5-5-5-5--------------------------------|
 Db|-2-2-2-2-2-2-2-2-5-5-5-5-5-5-5-5-5-5-5-5-5-5-5-5-4-4-4-4-4-4-4-4|
 Ab|-2-2-2-2-2-2-2-2-3-3-3-5-3-3-3-3-5-5-5-5-5-5-5-5-4-4-4-4-4-4-4-4|
 Eb|-0-0-0-0-0-0-0-0-----------------3-3-3-3-3-3-3-3-2-2-2-2-2-2-2-2|x2

*Intro pt2: only 1 guitar part
(Guitar 1)
 
 eb|-7/8-12-5h7-8-3h5-7-2h3p2-2-3-3p0----------------------------|
 Bb|-------------------------------------------------------------|
 Gb|-------------------------------------------------------------|
 Db|-------------------------------------------------------------|
 Ab|-------------------------------------------------------------|
 Eb|-------------------------------------------------------------|

*Verse: bass starts then join in with
(Guitar 1)
 
 eb|----0-------------3-----------3------------3-----3-----------|
 Bb|---0--0-0--------0--0-0------0--0-0-------0--0-0-------------|
 Gb|--0----0--------0----0------0----0-------0----0--------------|
 Db|-2-----------------------------------------------------------|
 Ab|--------------3----------------------------------------------|
 Eb|--------------------------3------------2---------------------| x2

(Guitar 2)
 
 eb|----------------------------------------------------------------|
 Bb|----------------------------------------------------------------|
 Gb|-----------------5-5-5-5-5-5-5-5--------------------------------|
 Db|-2-2-2-2-2-2-2-2-5-5-5-5-5-5-5-5-5-5-5-5-5-5-5-5-4-4-4-4-4-4-4-4|
 Ab|-2-2-2-2-2-2-2-2-3-3-3-5-3-3-3-3-5-5-5-5-5-5-5-5-4-4-4-4-4-4-4-4|
 Eb|-0-0-0-0-0-0-0-0-----------------3-3-3-3-3-3-3-3-2-2-2-2-2-2-2-2|x2

PM . . . . . . . . . . . . . . . . . . . . . . . . . . . . . . . .
*Chorus
(Both Guitars)
 
 eb|----------------------------------------------------------------|
 Bb|----------------------------------------------------------------|
 Gb|-----------------5-5-5-5-5-5-5-5--------------------------------|
 Db|-2-2-2-2-2-2-2-2-5-5-5-5-5-5-5-5-5-5-5-5-5-5-5-5-4-4-4-4-4-4-4-4|
 Ab|-2-2-2-2-2-2-2-2-3-3-3-5-3-3-3-3-5-5-5-5-5-5-5-5-4-4-4-4-4-4-4-4|
 Eb|-0-0-0-0-0-0-0-0-----------------3-3-3-3-3-3-3-3-2-2-2-2-2-2-2-2|x2

*Post Chorus pt1:
(Guitar 1)
 
 eb|-4-4-4-4-7-7-7-7-5-5-5-5-2-2-2-2-----------------------------|
 Bb|--5-5-5-5-5-5-5-5-5-5-5-5-5-5-5-5----------------------------|
 Gb|-------------------------------------------------------------|
 Db|-------------------------------------------------------------|
 Ab|-------------------------------------------------------------|
 Eb|-------------------------------------------------------------| x2

(Guitar 2)
 
 eb|----------------------------------------------------------------|
 Bb|----------------------------------------------------------------|
 Gb|-----------------5-5-5-5-5-5-5-5--------------------------------|
 Db|-2-2-2-2-2-2-2-2-5-5-5-5-5-5-5-5-5-5-5-5-5-5-5-5-4-4-4-4-4-4-4-4|
 Ab|-2-2-2-2-2-2-2-2-3-3-3-5-3-3-3-3-5-5-5-5-5-5-5-5-4-4-4-4-4-4-4-4|
 Eb|-0-0-0-0-0-0-0-0-----------------3-3-3-3-3-3-3-3-2-2-2-2-2-2-2-2|x2

*Post Chorus pt2: only 1 guitar
(Guitar 1)
 
 eb|-7/8-12-5h7-8-3h5-7-2h3p2-2-3-3p0----------------------------|
 Bb|-------------------------------------------------------------|
 Gb|-------------------------------------------------------------|
 Db|-------------------------------------------------------------|
 Ab|-------------------------------------------------------------|
 Eb|-------------------------------------------------------------|

Verse: Bass starts in Guitars come in with this
(Guitar 1)
 
 eb|----0-------------3-----------3------------3-----3-----------|
 Bb|---0--0-0--------0--0-0------0--0-0-------0--0-0-------------|
 Gb|--0----0--------0----0------0----0-------0----0--------------|
 Db|-2-----------------------------------------------------------|
 Ab|--------------3----------------------------------------------|
 Eb|--------------------------3------------2---------------------| x2

(Guitar 2)
 
 eb|----------------------------------------------------------------|
 Bb|----------------------------------------------------------------|
 Gb|-----------------5-5-5-5-5-5-5-5--------------------------------|
 Db|-2-2-2-2-2-2-2-2-5-5-5-5-5-5-5-5-5-5-5-5-5-5-5-5-4-4-4-4-4-4-4-4|
 Ab|-2-2-2-2-2-2-2-2-3-3-3-5-3-3-3-3-5-5-5-5-5-5-5-5-4-4-4-4-4-4-4-4|
 Eb|-0-0-0-0-0-0-0-0-----------------3-3-3-3-3-3-3-3-2-2-2-2-2-2-2-2|x2

PM . . . . . . . . . . . . . . . . . . . . . . . . . . . . . . . .
*Chorus
(Both Guitars)
 
 eb|----------------------------------------------------------------|
 Bb|----------------------------------------------------------------|
 Gb|-----------------5-5-5-5-5-5-5-5--------------------------------|
 Db|-2-2-2-2-2-2-2-2-5-5-5-5-5-5-5-5-5-5-5-5-5-5-5-5-4-4-4-4-4-4-4-4|
 Ab|-2-2-2-2-2-2-2-2-3-3-3-5-3-3-3-3-5-5-5-5-5-5-5-5-4-4-4-4-4-4-4-4|
 Eb|-0-0-0-0-0-0-0-0-----------------3-3-3-3-3-3-3-3-2-2-2-2-2-2-2-2|x2

*Post Chorus:
(Guitar 1)
 
 eb|-4-4-4-4-7-7-7-7-5-5-5-5-2-2-2-2-----------------------------|
 Bb|--5-5-5-5-5-5-5-5-5-5-5-5-5-5-5-5----------------------------|
 Gb|-------------------------------------------------------------|
 Db|-------------------------------------------------------------|
 Ab|-------------------------------------------------------------|
 Eb|-------------------------------------------------------------| x4

(Guitar 2)
 
 eb|----------------------------------------------------------------|
 Bb|----------------------------------------------------------------|
 Gb|-----------------5-5-5-5-5-5-5-5--------------------------------|
 Db|-2-2-2-2-2-2-2-2-5-5-5-5-5-5-5-5-5-5-5-5-5-5-5-5-4-4-4-4-4-4-4-4|
 Ab|-2-2-2-2-2-2-2-2-3-3-3-5-3-3-3-3-5-5-5-5-5-5-5-5-4-4-4-4-4-4-4-4|
 Eb|-0-0-0-0-0-0-0-0-----------------3-3-3-3-3-3-3-3-2-2-2-2-2-2-2-2| x4

*Bridge pt1: after a short bass solo only 1 guitar
(Guitar 1)
 
 eb|-7/8-12-5h7-8-3h5-7-2h3p2-2----------------------------------|
 Bb|----------------------------3-3p0----------------------------|
 Gb|-------------------------------------------------------------|
 Db|-------------------------------------------------------------|
 Ab|-------------------------------------------------------------|
 Eb|-------------------------------------------------------------|

*Solo
(Guitar 1)- this is all i have of the solo for guitar 1 im working on the rest of it.
 
 eb|-7/8-12-5h7-7-7-7/8-5h7-7-7-7/8-12-5h7-8-3h5-7------------------------|
 Bb|----------------------------------------------------------------------|
 Gb|----------------------------------------------------------------------|
 Db|----------------------------------------------------------------------|
 Ab|----------------------------------------------------------------------|
 Eb|----------------------------------------------------------------------|
 eb|-10-10-10-10-10-10-10-10-10-10-10-10-10-10-10-10-------------|
 Bb|-10-10-10-10-10-10-10-10-10-10-10-10-10-10-10-10-------------|
 Gb|-------------------------------------------------------------|
 Db|-------------------------------------------------------------|
 Ab|-------------------------------------------------------------|
 Eb|-------------------------------------------------------------|
 eb|-7-7-7-7-7/5-5-5-5-------------------------------------------|
 Bb|-7-7-7-7-7/5-5-5-5-------------------------------------------|
 Gb|-------------------------------------------------------------|
 Db|-------------------------------------------------------------|
 Ab|-------------------------------------------------------------|
 Eb|-------------------------------------------------------------| x4
 eb|-7/8-12-5h7-8-3h5-7-2h3p2-2----------------------------------|
 Bb|----------------------------3-3p0----------------------------|
 Gb|-------------------------------------------------------------|
 Db|-------------------------------------------------------------|
 Ab|-------------------------------------------------------------|
 Eb|-------------------------------------------------------------|

(Guitar 2)
 
 eb|----------------------------------------------------------------|
 Bb|----------------------------------------------------------------|
 Gb|-----------------5-5-5-5-5-5-5-5--------------------------------|
 Db|-2-2-2-2-2-2-2-2-5-5-5-5-5-5-5-5-5-5-5-5-5-5-5-5-4-4-4-4-4-4-4-4|
 Ab|-2-2-2-2-2-2-2-2-3-3-3-5-3-3-3-3-5-5-5-5-5-5-5-5-4-4-4-4-4-4-4-4|
 Eb|-0-0-0-0-0-0-0-0-----------------3-3-3-3-3-3-3-3-2-2-2-2-2-2-2-2| x2

*Chorus
(Both Guitars)
 
 eb|----------------------------------------------------------------|
 Bb|----------------------------------------------------------------|
 Gb|-----------------5-5-5-5-5-5-5-5--------------------------------|
 Db|-2-2-2-2-2-2-2-2-5-5-5-5-5-5-5-5-5-5-5-5-5-5-5-5-4-4-4-4-4-4-4-4|
 Ab|-2-2-2-2-2-2-2-2-3-3-3-5-3-3-3-3-5-5-5-5-5-5-5-5-4-4-4-4-4-4-4-4|
 Eb|-0-0-0-0-0-0-0-0-----------------3-3-3-3-3-3-3-3-2-2-2-2-2-2-2-2|x2

*Post Chorus
(Guitar 1)
 
 eb|-4-4-4-4-7-7-7-7/8-12-5h7-8-3h5-7-2h3p2-2--------------------|
 Bb|--5-5-5-5-5-5-5---------------------------3-3p0--------------|
 Gb|-------------------------------------------------------------|
 Db|-------------------------------------------------------------|
 Ab|-------------------------------------------------------------|
 Eb|-------------------------------------------------------------|

(Guitar 2)
 
 eb|----------------------------------------------------------------|
 Bb|----------------------------------------------------------------|
 Gb|-----------------5-5-5-5-5-5-5-5--------------------------------|
 Db|-2-2-2-2-2-2-2-2-5-5-5-5-5-5-5-5-5-5-5-5-5-5-5-5-4-4-4-4-4-4-4-4|
 Ab|-2-2-2-2-2-2-2-2-3-3-3-5-3-3-3-3-5-5-5-5-5-5-5-5-4-4-4-4-4-4-4-4|
 Eb|-0-0-0-0-0-0-0-0-----------------3-3-3-3-3-3-3-3-2-2-2-2-2-2-2-2|

*Outro
(Guitar 1)
 
 eb|-7/8-12-5h7-7-7-7/8-12-5h7-7-7-7/8-12-5h7-8-3h5-7-2h3p2-2-------|
 Bb|----------------------------------------------------------3-3p0-|
 Gb|----------------------------------------------------------------|
 Db|----------------------------------------------------------------|
 Ab|----------------------------------------------------------------|
 Eb|----------------------------------------------------------------|x4

(Guitar 2)
 
 eb|-----------------------------------------------------------------|
 Bb|-----------------------------------------------------------------|
 Gb|-----------------5-5-5-5-5-5-5-5---------------------------------|
 Db|-2-2-2-2-2-2-2-2-5-5-5-5-5-5-5-5-5-5-5-5-5-5-5-5-4-4-4-4-4-4-4-4~|
 Ab|-2-2-2-2-2-2-2-2-3-3-3-5-3-3-3-3-5-5-5-5-5-5-5-5-4-4-4-4-4-4-4-4~|
 Eb|-0-0-0-0-0-0-0-0-----------------3-3-3-3-3-3-3-3-2-2-2-2-2-2-2-2~|

Thats it. if you have any questions feel free to email me at elshep223@yahoo.com. enjoy!

Important: The song above is NOT stored on the Chordie server. The original song is hosted at www.guitartabs.cc. Chordie works as a search engine and provides on-the-fly formatting. Chordie does not index songs against artists'/composers' will. To remove this song please click here.

Text color:
Chord color:
Chord grids: 
Font size:    
Page size: 

Ab Bb Db Gb
Rate #1 of 1 versions

Jango Player

Login - add to songbook

SHARE PAGE  



You need to log in to post comments