Guitar Tabs, Chords and Lyrics
Major upgrade!! After one year development the new version of Chordie is now online! Please give feedback.


Life Like Weeds   Modest Mouse

 
 e|--------------------------------------| 1 (Play section on 5, 9, and 13)
 B|--------------------------------------|
 G|---11---x-x-11---x-x-11---x-11---x-11-| x2
 D|----x---x-x--x---x-x--x---x--x---x--x-|
 A|----9---x-x--9---x-x--9---x--9---x--9-|
 E|--------------------------------------|
 e|--------------------------------------| 3
 B|--------------------------------------|
 G|--------------------------------------|
 D|------------4---7---4-----------------|
 A|----5-------------------7-5---7-------|
 E|--------------------------------5-----|
 e|--------------------------------------| 7
 B|--------------------------------------|
 G|--------------------------------------|
 D|------------4---7---4-----------------|
 A|----5---7---------------7-5---7-------|
 E|--------------------------------5-----|
 e|--------------------------------------| 11
 B|--------------------------------------|
 G|--------------------------------------|
 D|--------4-7-4-------4-7-4-------------|
 A|----5-7-------7-5-7-------7-5-7-------|
 E|--------------------------------5-----|
 e|--------------------------------------| 15
 B|--------------------------------------|
 G|--------------------------------------|
 D|--------4-7-4-------4-7-4-------------|
 A|----5-7-------7-5-7-------7-5-7-------|
 E|--------------------------------5-----|
 e|--------------------------------------| 17
 B|--------------------------------------|
 G|--------------------------------------|
 D|--------4-7-4-------4-7-4-------------|
 A|----5-7-------7-5-7-------7-5-7-5-----|
 E|--------------------------------------|
 e|--------------------------------------| 19
 B|--------------------------------------|
 G|----7^--------------------------------|
 D|--------9^--7^----------------4---4---|
 A|----------------9^--7---5-7-----7-----|
 E|--------------------------------------|
 e|--------------------------------------| 21
 B|--------------------------------------|
 G|--------------------------------------|
 D|--------4-7-4-------4-7-4-------------|
 A|----5-7-------7-5-7-------7-5-7-------|
 E|--------------------------------5-----|
 e|--------------------------------------| 23
 B|--------------------------------------|
 G|----7-7-------------------------------|
 D|--------9-9-7-7---------------4-------|
 A|----------------9-9-7-7-5-5-7---7-5---|
 E|--------------------------------------|
 e|--------------------------------------| 25
 B|--------------------------------------|
 G|--------------------------------------|
 D|--------4-7-4-------4-7-4-------------|
 A|----5-7-------7-5---------7-5-7-------|
 E|------------------5-------------5-----|

 


 


 (Guitar 2)


 

 
 e|--------------------------------------| 3
 B|--------------------------------------|
 G|------------4-------------------------|
 D|--------7-----------------------------|
 A|----5---------------------------------|
 E|--------------------------------------|
 e|--------------------------------------| 7
 B|--------------------------------------|
 G|------------4-------------------------|
 D|--------7-----------------------------|
 A|----5---------------------------------|
 E|--------------------------------------|
 e|--------------------------------------| 11
 B|--------------------------------------|
 G|------------4-------------------------|
 D|------7---7-----------7---7-----------|
 A|----5---5-----------5---5---5---------|
 E|--------------------------------------|
 e|--------------------------------------| 15
 B|--------------------------------------|
 G|----------4-------------4-------------|
 D|--------------------4-7---7-----------|
 A|----------------------------5---------|
 E|--------------------------------------|
 e|--------------------------------------| 17
 B|--------------------------------------|
 G|----------------------4---------------|
 D|--------4-7---------4-7-4-7-5---------|
 A|----5-7-------------------------------|
 E|--------------------------------------|
 e|--------------------------------------| 19
 B|--------------------------------------|
 G|------------4---------------4---------|
 D|--------7---------------7-------------|
 A|----5---------------5-----------------|
 E|--------------------------------------|
 e|--------------------------------------| 21
 B|--------------------------------------|
 G|--------------------------------------|
 D|--------4-7-----5---4-7-4-7-----------|
 A|----5-7-------------------------------|
 E|--------------------------------------|
 e|--------------------------------------| 23-|
 B|----------------------------------------------|
 G|------------4-----------4---------------------|
 D|--------7-------7-----------7-----------------|
 A|----5---------------5-----------9\\\----------|
 E|----------------------------------------------|
 e|--------------------------------------| 25
 B|--------------------------------------|
 G|--------------------------------------|
 D|----------7-5-------4-7-4-7-5---------|
 A|-\\\5---------------------------------|
 E|--------------------------------------|
 e|--------------------------------------| 27
 B|--------10^-------------10^-----------|
 G|----7^------9^--9^--7^------9^--9^----|
 D|--------------------------------------|
 A|--------------------------------------|
 E|--------------------------------------|

 


 


 Verse [wbole notes 29-62; 0:53-1:56]


 (Guitar 1)


 

 
 e|-----------------------------------------| 29
 B|-----------------------------------------|
 G|----11-11-xx14-xx12-xx11-xx7-xx9/11-x----|
 D|----11-11-xx14-xx12-xx11-xx7-xx9/11-x----|
 A|----9--9--xx12-xx10-xx9--xx5-xx7/9--x----|
 E|-----------------------------------------|
 e|-----------------------------------------| 33
 B|-----------------------------------------|
 G|----11-11-xx14-xx11-xx9-xx7-xx9/11-14----|
 D|----11-11-xx14-xx11-xx9-xx7-xx9/11-14----|
 A|----9--9--xx12-xx9-—xx7-xx5-xx7/9--12----|
 E|-----------------------------------------|
 e|-----------------------------------------| 37
 B|-----------------------------------------|
 G|----11-11-xx14-xx11-xx9-xx7-xx9/11-14----|
 D|----11-11-xx14-xx11-xx9-xx7-xx9/11-14----|
 A|----9--9--xx12-xx9—-xx7-xx5-xx7/9--12----|
 E|-----------------------------------------|
 e|-----------------------------------------| 41
 B|-----------------------------------------|
 G|----11-11-xx14-xx11-xx16-xx7-xx9/11-x----|
 D|----11-11-xx14-xx11-xx16-xx7-xx9/11-x----|
 A|----9--9--xx12-xx9—-xx14-xx5-xx7/9--x----|
 E|-----------------------------------------|
 e|--------------------------------------| 43
 B|--------------------------------------|
 G|--------------------------------------|
 D|----5-------5-------5-------5---------|
 A|--------------------------------------|
 E|--------------------------------------|
 e|--------------------------------------| 45
 B|--------------------------------------|
 G|--------------------------------------|
 D|----4-----------4---4-----------------|
 A|------------7---------------7---5-----|
 E|--------------------------------------|
 e|--------------------------------------| 47
 B|--------------------------------------|
 G|--------------------------------------|
 D|--------4-7-4-------4-7-4-------------|
 A|----5-7-------7-5-7-------7-5-7-------|
 E|--------------------------------5-----|
 e|--------------------------------------| 49
 B|--------------------------------------|
 G|--------------------------------------|
 D|--------4-7-4-------4-7-4-------------|
 A|----5-7-------7-5-7-------7-5-7-------|
 E|--------------------------------5-----|
 e|--------------------------------------| 51
 B|--------------------------------------|
 G|----7^--------------------------------|
 D|--------9^--7^----------------4-------|
 A|----------------9^--7---5-7-----7-5---|
 E|--------------------------------------|
 e|--------------------------------------| 53
 B|--------------------------------------|
 G|--------------------------------------|
 D|--------4-7-4-------4-7-4-------------|
 A|----5-7-------7-5-7-------7-5-7-------|
 E|--------------------------------7\5---|
 e|--------------------------------------| 55
 B|--------------------------------------|
 G|------------4-7-4---------------------|
 D|--------4-7-------7-------------------|
 A|----5-7-------------5-7-5-7-5---5-7---|
 E|------------------------------7-------|

 


 [ Tab from: bttp://www.guitartabs.cc/tabs/m/modest_mouse/life_like_weeds_tab_ver_3.btml ] 


 

 
 e|--------------------------------------| 57
 B|--------------------------------------|
 G|--------4-7-4-------------------------|
 D|----4-7-------7-4-------4-7-4---------|
 A|------------------7-5-7-------7-------|
 E|--------------------------------7\5---|
 e|--------------------------------------| 59
 B|--------------------------------------|
 G|--------------------------------------|
 D|--------4-7-4-------4-7-4-------------|
 A|----5-7-------7-5-7-------7-5-7-------|
 E|--------------------------------5-----|
 e|--------------------------------------| 61
 B|--------------------------------------|
 G|--------------------------------------|
 D|------------4---5---7---7-------------|
 A|----5---7-----------------------------|
 E|--------------------------------------|

 


 


 (Guitar 2)


 

 
 e|--------------------------------------| 31 (Play on 35, 39, 43 and 47)
 B|--------10^-------------10^-----------|
 G|----7^------9^--9^--7^------9^--9^----|
 D|--------------------------------------|
 A|--------------------------------------|
 E|--------------------------------------|
 e|--------------------------------------| 53
 B|--------------------------------------|
 G|--------------------------------------|
 D|--------------------------------9-7---|
 A|--------------------------------------|
 E|--------------------------------------|
 e|--------------------------------------| 57
 B|--------------------------------------|
 G|----------------------------------9-7-|
 D|--------------------------------9-----|
 A|--------------------------------------|
 E|--------------------------------------|

 


 


 (Guitar 3)


 

 
 e|----------------------------------------------| 29
 B|----------------------------------------------|
 G|----------------------------------------------|
 D|----------------------------------------------|
 A|----9-9-99/12-1212\10-1010\9-99\5-55/7-9-7----|
 E|----------------------------------------------|
 e|-------------------------------------------------| 33
 B|-------------------------------------------------|
 G|-------------------------------------------------|
 D|-------------------------------------------------|
 A|----9-9-99/12-1212\10-1010/14-1414\5-55/7-9-7----|
 E|-------------------------------------------------|
 e|-------------------------------------------------| 37
 B|-------------------------------------------------|
 G|-------------------------------------------------|
 D|-------------------------------------------------|
 A|----9-9-99/12-1212\10-1010/14-1414\5-55/7-9-7----|
 E|-------------------------------------------------|
 e|----------------------------------------------| 41
 B|----------------------------------------------|
 G|----------------------------------------------|
 D|----------------------------------------------|
 A|----9-9-99/12-1212\10-1010\9-99\5-55/7-9-7----|
 E|----------------------------------------------|
 e|--------------------------------------| 45
 B|--------------------------------------|
 G|----7---6---4---6---7---6-------------|
 D|----------------------------9---7-----|
 A|--------------------------------------|
 E|--------------------------------------|
 e|--------------------------------------| 47
 B|--------------------------------------|
 G|----7^--7^--7^--9---7^--7^--7^--9-----|
 D|--------------------------------------|
 A|--------------------------------------|
 E|--------------------------------------|
 e|--------------------------------------| 49
 B|--------------------------------------|
 G|----7-6-7-6-4-6-7-6-7-6-7-6-7-6-4-----|
 D|----------------------------------7---|
 A|--------------------------------------|
 E|--------------------------------------|
 e|--------------------------------------| 51 (Play on 53 and 57)
 B|--------------------------------------|
 G|----7-6-7-6-4-6-7-6-7-6-4-6-7-6-4-----|
 D|----------------------------------7---|
 A|--------------------------------------|
 E|--------------------------------------|
 e|--------------------------------------| 55
 B|--------------------------------------|
 G|----7-6-7-6-4-6-7-6-7-6-4-6-7-6644----|
 D|----------------------------------7---|
 A|--------------------------------------|
 E|--------------------------------------|
 e|--------------------------------------| 59
 B|--------------------------------------|
 G|----7-6-7-6-4-6-7-6-7-6-7-6-4-6-4-4---|
 D|--------------------------------------|
 A|--------------------------------------|
 E|--------------------------------------|
 e|--------------------------------------| 61 (Fades out)
 B|--------------------------------------|
 G|----7-6-7-6-4-6-7-6(7-6-7-6)----------|
 D|--------------------------------------|
 A|--------------------------------------|
 E|--------------------------------------|

 


 


 Chorus [wbole notes 63-85; 1:56-2:40]


 (Guitar 3)


 

 
 e|--------------------------------------| 67 (Play on 69-85[odd #])
 B|--------------------------------------|
 G|--------------------------------------|
 D|--------------------------------------|
 A|----7---5---4-------------------------|
 E|----------------7---5-----------------|

 


 


 (Guitar 2)


 

 
 e|--------------------------------------| 79 (Play on 81-85[odd #])
 B|----5+--------------------------------|
 G|--------------------------------------|
 D|--------------------------------------|
 A|--------------------------------------|
 E|--------------------------------------|

 


 


 Bridge [wbole notes 87-101; 2:41-3:10]


 (Guitar 1)


 

 
 e|--------------------------------------| 87 (Play on 91, 95, and 99)
 B|--------------------------------------|
 G|--------------------------------------|
 D|---------------------------5----------|
 A|--------------------------------------|
 E|-----------------------3--------------|
 e|--------------------------------------| 89 (Play on 93 and 97)
 B|--------------------------------------|
 G|--------------------------------------|
 D|---------------------------9----------|
 A|--------------------------------------|
 E|-----------------------7--------------|
 e|--------------------------------------| 101
 B|--------------------------------------|
 G|--------------------------------------|
 D|---------------------------4----------|
 A|-----------------------2--------------|
 E|--------------------------------------|

 


 


 (Guitar 3)


 [Go nuts on tbese cbords witb a wbammy] 


 

 
 e|--------------------------------------| 87 (Play on 91, 95, and 99)
 B|--------------------------------------|
 G|----7-------7-------------------------|
 D|----9-------9-------------------------|
 A|----10------10------------------------|
 E|--------------------------------------|
 e|--------------------------------------| 89 (Play on 93 and 97)
 B|--------------------------------------|
 G|----7-------7-------------------------|
 D|----9-------9-------------------------|
 A|----9-------9-------------------------|
 E|--------------------------------------|

 


 


 2nd Chorus [wbole notes 103-137; 3:11-4:16]


 (Guitar 2)


 

 
 e|--------------------------------------| 103 (Play on 105-121[odd #])
 B|--------------------------------------|
 G|--------------------------------------|
 D|--------------------------------------|
 A|----12--10--9---7---5-----------------|
 E|--------------------------------------|
 e|--------------------------------------| 105
 B|--------------------------------------|
 G|--------------------------------------|
 D|--------------------------------------|
 A|----12--10--9---10-—5-----------------|
 E|--------------------------------------|

 


 


 (Guitar 3)


 

 
 e|--------------------------------------| 107 (Play on 109-123[odd #])
 B|--------------------------------------|
 G|--------------------------------------|
 D|--------------------------------------|
 A|----7---5---4-------------------------|
 E|----------------7---5-----------------|

 


 


 End Verse [whole notes 139-; 4:17-


 (Guitar 1)


 

 
 e|--------------------------------------| 143
 B|--------------------------------------|
 G|------------4-------------------------|
 D|----5---4h5---------------------------|
 A|--------------------------------------|
 E|--------------------------------------|
 e|--------------------------------------| 145
 B|--------------------------------------|
 G|------------4-------------------------|
 D|----5---4h5---------------------------|
 A|--------------------------------------|
 E|--------------------------------------|
 e|--------------------------------------| 143
 B|--------------------------------------|
 G|--------------------------------------|
 D|----5---4h5-5-------------------------|
 A|--------------------------------------|
 E|--------------------------------------|
 e|--------------------------------------| 143
 B|--------------------------------------|
 G|------------4---4---------------------|
 D|----5---4h5---------7---5p4-5p4-------|
 A|--------------------------------5-----|
 E|--------------------------------------|


Important: The song above is NOT stored on the Chordie server. The original song is hosted at www.guitartabs.cc. Chordie works as a search engine and provides on-the-fly formatting. Chordie does not index songs against artists'/composers' will. To remove this song please click here.

This song is displayed as text-only. Transposing and tuning is only available for chordpro-songs.
Rate #1 of 1 versions

Login - add to songbook

SHARE PAGE  




You need to log in to post comments