Guitar Tabs, Chords and Lyrics
Major upgrade!! After one year development the new version of Chordie is now online! Please give feedback.


Satin in a Coffin   Modest Mouse

 
 E |-----------------------|
 B |--------------------8--|
 G |------5-7-5---5--------|
 D |5-7-8-------8---8-5---5|
 A |-----------------------|
 E |-----------------------|

 


 


 Part 2


 

 
 E |-------------------|
 B |----------------8--|
 G |------5-7-5--------|
 D |5-7-8-------8-5---5|
 A |-------------------|
 E |-------------------|

 


 


 Part 3


 E |3-1-0-1|


 B |3-1-0-1|


 G |4-2-1-2|


 D |5-3-2-3|


 A |5-3-2-3|


 E |3-1-0-1|


 


 Part 4


 

 
 E |-----------------------------------|
 B |-----------------------------------|
 G |7---7------------------------------|
 D |--8---8-7---7---12----12----7---7--|
 A |----------8---8----13----13---8---8|
 E |-----------------------------------|

 


 


 Part 5


 

 
 E |---------------|
 B |--6-4-------4--|
 G |7-----7-5-7---7|
 D |---------------|
 A |---------------|
 E |---------------|

 


 


 Part 6


 

 
 E |-------|

 


 B |8-6-4-3|


 

 
 G |-------|
 D |-------|
 A |-------|
 E |-------|

 


 


 Part 7


 

 
 E |---------|
 B |---------|
 G |---------|

 


 D |3-5-3-1-0|


 

 
 A |---------|
 E |---------|


Important: The song above is NOT stored on the Chordie server. The original song is hosted at www.guitartabs.cc. Chordie works as a search engine and provides on-the-fly formatting. Chordie does not index songs against artists'/composers' will. To remove this song please click here.

This song is displayed as text-only. Transposing and tuning is only available for chordpro-songs.
Rate #2 of 3 versions

Login - add to songbook

SHARE PAGE  




You need to log in to post comments