Guitar Tabs, Chords and Lyrics
Update 25:10. 13:00. Site is back up running again. Songbooks are recovered. Woring on getting search back up..


Ammunition  Morrissey

AMMUNITION by MORRISSEY, from the album ‚??MALADJUSTED‚??
tabbed by builderboy@comcast.net
INTRO (X2)
[G] [C] [A] [D] [Em] [C6] [C] [G]  
 
 |-------------------|-------------------|-------------------|-------------------|
 |-------------------|------------7------|---7-8--10--8------|-------------------|
 |-------------------|-------6----7------|-9-------9----9----|-------9---7-------|
 |--9----9--/10------|-7-7-7---7--7------|-9------10---------|-10-10-----9-------|
 |-10-10‚??10-/10------|-7----------5------|-7-------8---------|-10-------10-------|
 |----------/8-------|-5-----------------|-------------------|--8----------------|

[C] [G] [C] [G] [A] [D] [B] [E]  
 
 |-------------------|-------------------|-------------------|-------------------|
 |-------------------|-------------------|-------------------|-------------------|
 |-------------------|-------------------|-------------------|-------------------|
 |-------------------|-------------------|-------------------|-------------------|
 |-------------------|-------------------|-------------------|-------------------|
 |-------------------|-------------------|-------------------|-------------------|

(1) I know these roads, .........................
(2) I know these roads, an old hand ........................................me
(3) I‚??ve been crying..................................................and it says
[C] [D] [G] [C] [A] [D]  
 
 |-------------------|-------------------|-------------------|-------------------|
 |-------------------|-------------------|-------------------|-------------------|
 |-------------------|-------------------|-------------------|-------------------|
 |-------------------|-------------------|-------------------|-------------------|
 |-------------------|-------------------|-------------------|-------------------|
 |-------------------|-------------------|-------------------|-------------------|

.............. I don‚??t need more ammu -nition I‚??ve got
now‚?¶. veering cliffward ..................................
‚??We‚??ve never really been away‚?? ............................
[Em] [C] [C] [G] [G] [C] [A] [D]  
 
 |-------------------|-------------------|-------------------|-------------------|
 |-------------------|-------------------|-------------------|-------------------|
 |-------------------|-------------------|-------------------|-------------------|
 |-------------------|-------------------|-------------------|-------------------|
 |-------------------|-------------------|-------------------|-------------------|
 |-------------------|-------------------|-------------------|-------------------|

more than I can spend I don‚??t dwell on things I‚??m missing...
more than I can spend ....................................
more than I can spend ....................
[Em] [C] [D] [C] [G] [C] [D] [C]  
 
 |-------------------|-------------------|-------------------|-------------------|
 |-------------------|-------------------|-------------------|-------------------|
 |-------------------|-------------------|-------------------|-------------------|
 |-------------------|-------------------|-------------------|-------------------|
 |-------------------|-------------------|-------------------|-------------------|
 |-------------------|-------------------|-------------------|-------------------|

Pleased with the things I‚??ve found
.......................................
...........................................
INTERLUDE (X2)
[G11] [C9] [A9] [D] [Em] [C6] [C] [G]  
 
 |-10--------10------|-------------------|-------------------|-------------------|
 |--8-------/-8------|------------7------|---7-8--10--8------|-------------------|
 |--7-------/-9------|-------6----7------|-9-------9----9----|-------9---7-------|
 |--9-------/10------|-7-7-7---7--7------|-9------10---------|-10-10-----9-------|
 |-------------------|-7----------5------|-7-------8---------|-10-------10-------|
 |-------------------|-5-----------------|-------------------|--8----------------|


Important: The song above is NOT stored on the Chordie server. The original song is hosted at www.guitartabs.cc. Chordie works as a search engine and provides on-the-fly formatting. Chordie does not index songs against artists'/composers' will. To remove this song please click here.

Text color:
Chord color:
Chord grids: 
Font size:    
Page size: 

A A9 B C C6 C9 D E Em G G11
Rate #1 of 7 versions

Jango Player

Login - add to songbook

SHARE PAGE  




You need to log in to post comments