Guitar Tabs, Chords and Lyrics
Major upgrade!! After one year development the new version of Chordie is now online! Please give feedback.


Darkspace  Morten Harket

Darkspace - Morten Harket
Standard tuning
Tabbed by: stianba@gmail.com
Bm x24432
D xx0232
A x02220
Intro (main riff):
[Bm] [D] [A] [Bm] [D] [A] 
 
 |------------------------------------------------------------------------|
 |------------------------------------------------------------------------|
 |-------4/6-4--------------------------------4/6-4-----------------------|
 |---2h4-------2--------2/3-3--2/3-3------2h4-------2---------------------|
 |-2-------------/5---0-----------------2-------------/5----0-0-----------|
 |------------------------------------------------------------------------|

| / slide up
| \ slide down
| h hammer-on
| p pull-off
 
 --------------------------------------------------------------------------

[Bm]In the [D]darkspace
When I [A]close my eyes
I [Bm]see your face [D]shining
Like the [A]moon in the [Bm]night
And I must [D]tell you
From my [A]heart
I’ve[Bm] been waiti[D]ng my time My love
[A]All over the world
[Bm] [D] [A]  
 
 |------------------------------------------------------------------------|
 |------------------------------------------------------------------------|
 |-------4/6-4------------------------------------------------------------|
 |---2h4-------2--------2/3-3--2/3-3--------------------------------------|
 |-2-------------/5---0---------------------------------------------------|
 |------------------------------------------------------------------------|

YouR[Bm]17;re with me
[D]With me With me
With [A]me
You’re[Bm] with me
[D]Wherever I go[A]
YouR[Bm]17;re with me
[D]With me With me
With [A]me
You’re[Bm] with me
[D]Wherever I go[A]
[Bm]Remember [D]who you’re on the ba[A]ck of
[Bm]Riding [D]through the human race [A]
[Bm]Crossing these [D]rivers of memories[A]
[Bm]Girl, you’v[D]e got sunshine on you[A]r face
YouR[Bm]17;re with me
[D]With me With me
With [A]me
You’re[Bm] with me
[D]Wherever I go[A]
YouR[Bm]17;re with me
[D]With me With me
With [A]me
You’re[Bm] with me
[D]Wherever I go[A]
[Bm]Time
Time is like a [D]slow rising [A]wave
[Bm]Gathering, gathering
Our [D]nights and [A]days
And I [Bm]feel, I feel
I’m a[D]t the moment wh[A]en it breaks
Yes I [Bm]feel
We’re a[D]t the moment wh[A]en it breaks
YouR[Bm]17;re with me
[D]With me With me
You’re[A] with me
You’re[Bm] with me
Riding [D]through you every night[A]
Cause youR[Bm]17;re with me
[D]With me With me
You’re[A] with me
You’re[Bm] with me
And in our [D]window there is light[A]
(main riff) x2
Cause youR[Bm]17;re with me
[D]With me With me
You’re[A] with me
(main riff) x2
(End on Bm)

Important: The song above is NOT stored on the Chordie server. The original song is hosted at www.guitartabs.cc. Chordie works as a search engine and provides on-the-fly formatting. Chordie does not index songs against artists'/composers' will. To remove this song please click here.

Text color:
Chord color:
Chord grids: 
Font size:    
Page size: 

A Bm D
Rate #1 of 6 versions

Jango Player

Login - add to songbook

SHARE PAGE  



You need to log in to post comments