Guitar Tabs, Chords and Lyrics
Server problems seems to be fixed. Chordie has been experiencing problems with songs disappearing. These issues now seems to be fixed, but still verifying the fix. If you find anything strange, please email admin@chordie.com.


All Automatic   Mourning Widows

 
 |----------------------------------------------------------------------|
 |----------------------------------------------------------------------|
 |----------------------------------------------------------------------|
 |----------------------------------------------------------------------|
 |----------------------------------------------------------------------|
 |-2--2-2-2-2-2-2-2-2-2-2-2-2-2-2-2-2-2-2-2-2-2-2-2-2-2-2-2-2///-\\\----| 

 


 


 P.M... P.M. (Ok, from now on youïll guess when is P.M.)


 

 
 |----------------------------------------------------------------------|
 |----------------------------------------------------------------------|
 |------------7--------------------------7--------------------------7---|
 |-9---7-8-9----9--7-7-8-9--7-8-9--7-8-9---9--7-7-8-9--7-8-9--7-8-9---9-|
 |-9---7-8-9----9--7-7-8-9--7-8-9--7-8-9---9--7-7-8-9--7-8-9--7-8-9---9-|
 |-9---7-8-9----9--7-7-8-9--7-8-9--7-8-9---9--7-7-8-9--7-8-9--7-8-9---9-|
 |----------------------------------------------------------------------|
 |----------------------------------------------------------------------|
 |-------------------------7--------------------------7-----------------|
 |---7-7-8-9--7-8-9--7-8-9---9--7-7-8-9--7-8-9--7-8-9---9--7-7-8-9------|
 |---7-7-8-9--7-8-9--7-8-9---9--7-7-8-9--7-8-9--7-8-9---9--7-7-8-9------|
 |---7-7-8-9--7-8-9--7-8-9---9--7-7-8-9--7-8-9--7-8-9---9--7-7-8-9------|
 |----------------------------------------------------------------------|
 |----------------------------------------------------------------------|
 |----------------7--------------------------7--------------------------|
 |---7-8-9--7-8-9---9--7-7-8-9--7-8-9--7-8-9---9--7-7-8-9--7-8-9--7-8-9-|
 |---7-8-9--7-8-9---9--7-7-8-9--7-8-9--7-8-9---9--7-7-8-9--7-8-9--7-8-9-|
 |---7-8-9--7-8-9---9--7-7-8-9--7-8-9--7-8-9---9--7-7-8-9--7-8-9--7-8-9-|
 |-------------------------|
 |-------------------------|
 |--7----------------------|
 |----9--7-7-8-9--7-9------|
 |----9--7-7-8-9--7-9------|
 |----9--7-7-8-9--7-9------| 

 


 


 


 VERSE (Er...dunno if itïs played with two guitars, but Iïll do one)


 

 
 |----------------------------------------------------------------------|
 |----------------------------------------------------------------------|
 |--3-4---3bu4----3-4---3bu4------3-4---3bu4-----3-4---3bu4-------------|
 |--4-4---4-------4-4---4---------4-4---4--------4-4---4----------------|
 |--2-2---2-------2-2---2---------2-2---2--------2-2---2----------------|
 |----------------------------------------------------------------------| 

 


 Here goes my life again Itïs pretty plain What a


 


 

 
 |---7----7-------------------------------------------------------------|
 |---6----5-------------------------------------------------------------|
 |---7----6-------------3-4---3bu4---------3-4---3bu4-----3-4---3bu4----|
 |---0----0-------------4-4---4------------4-4---4--------4-4---4-------|
 |----------------------2-2---2------------2-2---2--------2-2---2-------|
 |----------------------------------------------------------------------| 

 


 shame What a shame Whoïll win the race today Havenït a


 


 

 
 |------------------7----7----------------------------------------------|
 |------------------6----5----------------------------------------------|
 |-3-4---3bu4-------7----6-----------3-4---3bu4-------3-4---3bu4--------|
 |-4-4---4----------0----0-----------4-4---4----------4-4---4-----\-----|
 |-2-2---2---------------------------2-2---2----------2-2---2-----\-----|
 |----------------------------------------------------------------------| 

 


 chance PLay the game PLay the game


 


 BRIDGE


 

 
 |---------0---------------0----------------0-------------0-------------|
 |---------0---------------0----------------0-------------0-------------|
 |---------4---------------4----------------4-------------2-------------|
 |---------4---------------4----------------5-------------2-------------|
 |---------2---------------4----------------5-------------0-------------|
 |----------------------------------------------------------------------| 

 


 Well Iïm tired of thinking of thinking thinking


 


 

 
 |---------0---------------0----------------0---------------------------|
 |---------0---------------0----------------0---------------------------|
 |---------4---------------4----------------4---------------------------|
 |---------4---------------4----------------5---------------------------|
 |---------2---------------4----------------5---------------------------|
 |--------------------------------------------------------2~------------| 

 


 The warnings the worries the pressuses Forget it for a minute


 [and] 


 CHORUS


 

 
 |----------------------------------------------------------------------|
 |----------------------------------------------------------------------|
 |----------------------------------------------------------------------|
 |8/9--7-7-8-8/9--8/9----8/9--7-7-8-8/9--8/9----8/9--7-7-8-8/9--8/9-----|
 |8/9--7-7-8-8/9--8/9----8/9--7-7-8-8/9--8/9----8/9--7-7-8-8/9--8/9-----|
 |8/9--7-7-8-8/9--8/9----8/9--7-7-8-8/9--8/9----8/9--7-7-8-8/9--8/9-----| 

 


 Get automatic Get automatic Move automatic


 


 

 
 |----------------------| |----------------------|
 |----------------------| |----------------------|
 |----------------------|X2 Second time |----------------------|
 |8/9--7-7-8-8/9--8/9---| ends with: |8/9--7-7-8-8/9--9/\---|
 |8/9--7-7-8-8/9--8/9---| |8/9--7-7-8-8/9--9/\---|
 |8/9--7-7-8-8/9--8/9---| |8/9--7-7-8-8/9--9/\---|

 


 All automatic All automatic


 


 


 Then back to this


 

 
 |----------------------------------------------------------------------|
 |----------------------------------------------------------------------|
 |------------7--------------------------7--------------------------7---|
 |-9---7-8-9----9--7-7-8-9--7-8-9--7-8-9---9--7-7-8-9--7-8-9--7-8-9---9-|
 |-9---7-8-9----9--7-7-8-9--7-8-9--7-8-9---9--7-7-8-9--7-8-9--7-8-9---9-|
 |-9---7-8-9----9--7-7-8-9--7-8-9--7-8-9---9--7-7-8-9--7-8-9--7-8-9---9-|
 |----------------------------------------------|
 |----------------------------------------------|
 |-------------------------7--------------------|
 |---7-7-8-9--7-8-9--7-8-9---9--7-7-8-9--7-9----|
 |---7-7-8-9--7-8-9--7-8-9---9--7-7-8-9--7-9----|
 |---7-7-8-9--7-8-9--7-8-9---9--7-7-8-9--7-9----|

 


 


 VERSE II


 

 
 |----------------------------------------------------------------------|
 |----------------------------------------------------------------------|
 |--3-4---3bu4----3-4---3bu4------3-4---3bu4-----3-4---3bu4-------------|
 |--4-4---4-------4-4---4---------4-4---4--------4-4---4----------------|
 |--2-2---2-------2-2---2---------2-2---2--------2-2---2----------------|
 |----------------------------------------------------------------------| 

 


 I'm always punching in Canït find the mean to an


 


 

 
 |---7----7-------------------------------------------------------------|
 |---6----5-------------------------------------------------------------|
 |---7----6-------------3-4----------------3-4---3bu4-----3-4---3bu4----|
 |---0----0-------------4-4----------------4-4---4--------4-4---4-------|
 |----------------------2-2----------------2-2---2--------2-2---2-------|
 |----------------------------------------------------------------------| 

 


 end Punch me out! I like the cloud Iïm on Would rather


 


 

 
 |------------------7----7----------------------------------------------|
 |------------------6----5----------------------------------------------|
 |-3-4---3bu4-------7----6-----------3-4---3bu4-------3-4---3bu4--------|
 |-4-4---4----------0----0-----------4-4---4----------4-4---4-----\-----|
 |-2-2---2---------------------------2-2---2----------2-2---2-----\-----|
 |----------------------------------------------------------------------| 

 


 ride number nine number nine


 


 BRIDGE II


 

 
 |---------0---------------0----------------0-------------0-------------|
 |---------0---------------0----------------0-------------0-------------|
 |---------4---------------4----------------4-------------2-------------|
 |---------4---------------4----------------5-------------2-------------|
 |---------2---------------4----------------5-------------0-------------|
 |----------------------------------------------------------------------| 

 


 Well Iïm tired of thinking thinking thinking


 


 

 
 |---------0---------------0----------------0---------------------------|
 |---------0---------------0----------------0---------------------------|
 |---------4---------------4----------------4---------------------------|
 |---------4---------------4----------------5---------------------------|
 |---------2---------------4----------------5---------------------------|
 |--------------------------------------------------------2~------------| 

 


 The warnings the worries the pressuses Forget it for a minute


 [and] 


 


 CHORUS


 

 
 |----------------------------------------------------------------------|
 |----------------------------------------------------------------------|
 |----------------------------------------------------------------------|
 |8/9--7-7-8-8/9--8/9----8/9--7-7-8-8/9--8/9----8/9--7-7-8-8/9--8/9-----|
 |8/9--7-7-8-8/9--8/9----8/9--7-7-8-8/9--8/9----8/9--7-7-8-8/9--8/9-----|
 |8/9--7-7-8-8/9--8/9----8/9--7-7-8-8/9--8/9----8/9--7-7-8-8/9--8/9-----| 

 


 Get automatic Get automatic Move automatic


 


 

 
 |----------------------| |----------------------|
 |----------------------| But |----------------------|
 |----------------------|X2 second time |----------------------|
 |8/9--7-7-8-8/9--8/9---| ends with: |8/9--7-7-8-8/9--9/\---|
 |8/9--7-7-8-8/9--8/9---| |8/9--7-7-8-8/9--9/\---|
 |8/9--7-7-8-8/9--8/9---| |8/9--7-7-8-8/9--9/\---|

 


 All automatic All automatic


 


 


 Then...guess what?


 

 
 |----------------------------------------------------------------------|
 |----------------------------------------------------------------------|
 |------------7--------------------------7--------------------------7---|
 |-9---7-8-9----9--7-7-8-9--7-8-9--7-8-9---9--7-7-8-9--7-8-9--7-8-9---9-|
 |-9---7-8-9----9--7-7-8-9--7-8-9--7-8-9---9--7-7-8-9--7-8-9--7-8-9---9-|
 |-9---7-8-9----9--7-7-8-9--7-8-9--7-8-9---9--7-7-8-9--7-8-9--7-8-9---9-| 

 


 Get automatic


 

 
 |----------------------------------------------------------------------|
 |----------------------------------------------------------------------|
 |-------------------------7--------------------------7-----------------|
 |---7-7-8-9--7-8-9--7-8-9---9--7-7-8-9--7-8-9--7-8-9---9--7-7-8-9------|
 |---7-7-8-9--7-8-9--7-8-9---9--7-7-8-9--7-8-9--7-8-9---9--7-7-8-9------|
 |---7-7-8-9--7-8-9--7-8-9---9--7-7-8-9--7-8-9--7-8-9---9--7-7-8-9------|

 


 Yeah


 

 
 |----------------------------------------------------------------------|
 |----------------------------------------------------------------------|
 |----------------7--------------------------7--------------------------|
 |---7-8-9--7-8-9---9--7-7-8-9--7-8-9--7-8-9---9--7-7-8-9--7-8-9--7-8-9-|
 |---7-8-9--7-8-9---9--7-7-8-9--7-8-9--7-8-9---9--7-7-8-9--7-8-9--7-8-9-|
 |---7-8-9--7-8-9---9--7-7-8-9--7-8-9--7-8-9---9--7-7-8-9--7-8-9--7-8-9-| 

 


 All automatic ah all automatic ah all automatic ah


 


 

 
 |-------------------------|
 |-------------------------|
 |--7----------------------|
 |----9--------------------|
 |----9---\\\--------------|
 |----9-----\\\-\-(slide down)

 


 


 


 SOLO


 

 
 |----------------------------------------------------------------------|
 |----------------------------------------------------------------------|
 |--4---3-4-3------4---3------4-3------4---3-4-3-----4---3----4--/6\4\3-|
 |-----------4-----------4-2-----4--------------4---------4-2-----------|
 |-------------2-------------------2--------------2---------------------|
 |----------------------------------------------------------------------| 

 


 


 A.H... 1/4 1


 

 
 |----------------------------------------------------------------------|
 |------------------------------------------4~-------5bu7bd5--4-----5bu-|
 |-4bu6bd4-3--4-3-------4---3-----4bu--3--------4-3------------4-3------|
 |----------------4----------4-2--------4-2--------4--------------------|
 |------------------2---------------------------------------------------|
 |----------------------------------------------------------------------| 

 


 


 preb.


 

 
 |----------------------------------------------------------------------|
 |-bd5-4----------------------------------------------------------------|
 |-------4-4---3-4-3-----4---3-----4-3------4---3-4-3-----4--3----4bu6bd4
 |------------------4---------4-2-----4--------------4--------4-2-------|
 |--------------------2-----------------2--------------2----------------|
 |----------------------------------------------------------------------| 

 


 


 A.H....


 

 
 |----------------------------------------------------------------------|
 |----------------------------------------------------------------------|
 |-3--4bu6bd4--3--4-3------4--3-----------------------------------------|
 |--------------------4--------4-2-1---3-2-1-0---2-1-0------------------|
 |----------------------2------------------------------4---6-5-4-3------|
 |----------------------------------------------------------------------| 

 


 


 (silence here)With tremolo and playing with volume knob..


 

 
 |----------------------------------------------------------------------|
 |---------------------------0------------------------------------------|
 |---------------------------7~----6-----8-------7---6---4---4~--(4)-(4)|
 |----------------------------------------------------------------------|
 |-5-4-3-2~-------------------------------------------------------------|
 |----------------------------------------------------------------------| 

 


 


 trem.. pick slide


 

 
 |----------------------------------------------------------------------|
 |---------------15-14----14--12--------12-14-14-15--15-15-14-12---14---|
 |-2--2---------------14--------14-12-14------------------------12------|
 |-------\\\------------14----------------------------------------------|
 |----------------------------------------------------------------------|
 |----------------------------------------------------------------------|
 |----------------------------------------------------------------------|
 |12\10---8--------------------------------------------------9----------|
 |-----------11-11--11-12-11-10-11-10-11-12-10-11--11~9------9------9---|
 |-----------------------------------------------------12-10----12---12-|
 |----------------------------------------------------------------------|
 |----------------------------------------------------------------------| 

 


 


 pick sl. so fast......


 

 
 |----------------------------------------------------------------------|
 |----------------------------------------------------------------------|
 |----------------------------------6--7-6--6----------6-6-6-------6----|
 |10---------------9----------------------9---7-9-7--------------4------|
 |--12-9-8-7-5------------------------------------------X-X---5-4-------|
 |--------------9-9-----2-2XXXXX----------------------------------------|
 |----------------------------------------------------------------------|
 |----------------------------------------------------------------------|
 |-------6--6-6--7-6-6------6-7-6-6-------------------8--9-8--7----7--6-|
 |---4--------------9--7-9-------9-7-9--9-8-------7-9---9---9---9------7|
 |-7---------------------------------------9-8--9-----------------------|
 |----------------------------------------------------------------------| 

 


 


 A.H.


 

 
 |----------------------------------------------------------------------|
 |----------7------------------11bu(12)-12-12-12-10--10-10-10-12--------|
 |-9-7--9-7---7----8bu(9)-7-------------------------------------11-11-11|
 |----9---------9----------9\-------------------------------------------|
 |----------------------------------------------------------------------|
 |----------------------------------------------------------------------| 

 


 


 HARMONICS(this sign mean harmonics -> *5 )


 

 
 |----------------------------------------------------------------------|
 |10-----------*5*5----*5-0-------------------------*5*5----*5-0----*5*5|
 |----------------------------------------------------------------------|
 |--12~-----X-X----X-X------X-X-X-X--X-X-X-X-----X-X-----X-X-----X-X-X-X|
 |----------------------------------------------------------------------|
 |----------------------------------------------------------------------|
 |----------------------------------------------------------------------|
 |------------*5*5----*5-0------------------------0-0---0-0-------------|
 |----------------------------------------------------------------------|
 |X-X-X-X--X-X----X-X------X-X--X-X---X-X-X-X--X-X---X-X-----X-X-X-X----|
 |----------------------------------------------------------------------|
 |----------------------------------------------------------------------| 

 


 


 (not sure at all about this part..............................)


 

 
 |----------------------2-------------------------------------2---------|
 |----------3-----5-----------5----3------------------3---5--------5----|
 |---4-----------------------------------4---2----4---------------------|
 |------0-0---2-3---3-4---4-3---2---------------------------------------|
 |-2-----------------------------2---2-2---2---2-2--2---2---2---2-2-----|
 |----------------------------------------------------------------------| 

 


 


 A.H. A.H.


 

 
 |----------------------------------------------------------------------|
 |-3-4----------------------------------------------4~------------4~----|
 |----4-4--2-2---------------------------4-4-2---2-4-----4-2--2-4-------|
 |-------------4-4-3-3-2-2-2-0-2-2--2/--------3-------------3-----------|
 |----------------------------------------------------------------------|
 |----------------------------------------------------------------------| 

 


 


 P.M.


 

 
 |-----------------------------2-3-2-0-2-3-5-7-5------------------------|
 |----------4~------5-5-5--3-5-------------------7-6-7-6-5-------5-6-7--|
 |-4-2--2-4-----4-2-4-4-4----------------------------------7--4-7-------|
 |----3-----------------------------------------------------------------|
 |----------------------------------------------------------------------|
 |----------------------------------------------------------------------| 

 


 


 (some harmonics sounds with muted strings)


 

 
 |----------------X-X-X-X-X--17-17-17-17--18-18-18-18-17-17-17-17--X--XX|
 |-6\--5-4--------X-X-X-X-X--17-17-17-17--18-18-18-18-17-17-17-17--X--XX|
 |--------4-4~\---X-X-X-X-X--16-16-16-16--17-17-17-17-16-16-16-16--X--XX|
 |----------------------------------------------------------------------|
 |----------------------------------------------------------------------|
 |----------------------------------------------------------------------|
 |-X-X--X-X--X-X--X--/17-17-17-17-X-X-17/18-18-18-18--X-X-X-17-17-17-17-|
 |-X-X--X-X--X-X--X--/17-17-17-17-X-X-17/18-18-18-18--X-X-X-17-17-17-17-|
 |-X-X--X-X--X-X--X--/16-16-16-16-X-X-16/17-17-17-17--X-X-X-16-16-16-16-|
 |----------------------------------------------------------------------|
 |----------------------------------------------------------------------|
 |----------------------------------------------------------------------|
 |-X-X-X-X-X-X-X-X-X-X-X-X-17-X-X-17-17-X-17-X-X-----17--17-17-17-17----|
 |-X-X-X-X-X-X-X-X-X-X-X-X-17-X-X-17-17-X-17-X-X-----17--17-17-17-17----|
 |-X-X-X-X-X-X-X-X-X-X-X-X-16-X-X-16-16-X-16-X-X-----16--16-16-16-16----|
 |----------------------------------------------(16)--------------------|
 |----------------------------------------------------------------------|
 |----------------------------------------------------------------------|
 |-18-18-18-18----X-----X--X17-17--X--17-17--X-X--17-17--X-X-17-17------|
 |-18-18-18-18----X-----X--X17-17--X--17-17--X-X--17-17--X-X-17-17------|
 |-17-17-17-17----X-----X--X16-16--X--16-16--X-X--16-16--X-X-16-16------|
 |----------------------------------------------------------------------|
 |----------------------------------------------------------------------|
 |----------------------------------------------------------------------|
 |-17-17-X-X--17-17-X-X--17-17--17-17-X--17-17-----------7~-------------|
 |-17-17-X-X--17-17-X-X--17-17--17-17-X--17-17--------------------------|
 |-16-16-X-X--16-16-X-X--16-16--16-16-X--16-16---------7----------------|
 |----------------------------------------------2/---9---------0-0-2-3-3|
 |----------------------------------------------------------2-2---------|
 |----------------------------------------------------------------------| 

 


 


 1 1 1 this part sounds(1) one octave lower too


 

 
 |----------------------------------------------------------------------|¨using
 |----6-----5-----3----------------------3-5-5bu-(7)bd5-3-5-3~----------|an
 |----8bu---7bu---5bu----------------2-4--------------------------\-----|octavizer?
 |-4-----------------------------2-4-------------------------------\----|
 |-----------------------2-2--------------------------------------------|
 |----------------------------------------------------------------------| 

 


 Yeah


 


 

 
 |----------------------------------------------------------------------|
 |----------------------------------------------------------------------|
 |--4---3-4-3------4---3------4-3------4---3-4-3-----4---3----4--/6\4\3-|
 |-----------4-----------4-2-----4--------------4---------4-2-----------|
 |-------------2-------------------2--------------2---------------------|
 |----------------------------------------------------------------------| 

 


 


 [1] [1]  

 
 |----------------------------------------------------------------------|
 |------------------------------------4-------5bu-------5bu--5-4--------|
 |--4---3-4-3------4---3------4~-3-------4-3-------4-3----------4-------|
 |-----------4-----------4-2------4-2-------4---------4-----------------|
 |-------------2--------------------------------------------------------|
 |----------------------------------------------------------------------|
 |----------------------------------------------------------------------|
 |----------------------------------------------------------------------|
 |--4---3-4-3------4---3------4-3------4---3-4-3-----4---3----4--/6\4\3-|
 |-----------4-----------4-2-----4--------------4---------4-2-----------|
 |-------------2-------------------2--------------2---------------------|
 |----------------------------------------------------------------------|
 |-------------------------------------------------|
 |-------------------------------------------------|
 |--4---3-4-3------4---3---------------------------|End of the solo
 |-----------4-----------4-2-1--3-2-1-0--2-1-0-----| ( :P )
 |-------------2-------------------------------4---|
 |-------------------------------------------------| 

 


 


 


 BRIDGE III


 

 
 |---------0---------------0----------------0--0----------0-------------|
 |---------0---------------0----------------0--0----------0-------------|
 |-XXXXX---4---------------4----------------4--4----------2-------------|
 |-XXXXX---4---------------4----------------5--5----------2-------------|
 |-XXXXX---2---------------4-----------X-X--5--5----------0-------------|
 |----------------------------------------------------------------------| 

 


 Well Iïm tired of thinking thinking thinking


 pick slide


 

 
 |---------0--0------------0----------------0---------------------------|
 |---------0--0------------0----------------0---------------------------|
 |---------4--4------------4----------------4----------------------\----|
 |---------4--4------------4----------------5----------------------\----|
 |---------2--2------------4----------------5---------------------------|
 |--------------------------------------------------------2~------------| 

 


 The warnings the worries the pressuses Forget it for a minute


 [and] 


 CHORUS


 

 
 |----------------------------------------------------------------------|
 |----------------------------------------------------------------------|
 |----------------------------------------------------------------------|
 |8/9--7-7-8-8/9--8/9----8/9--7-7-8-8/9--8/9----8/9--7-7-8-8/9--8/9-----|
 |8/9--7-7-8-8/9--8/9----8/9--7-7-8-8/9--8/9----8/9--7-7-8-8/9--8/9-----|
 |8/9--7-7-8-8/9--8/9----8/9--7-7-8-8/9--8/9----8/9--7-7-8-8/9--8/9-----| 

 


 Get automatic Get automatic Move automatic


 


 

 
 |----------------------| |----------------------|
 |----------------------| But |----------------------|
 |----------------------|X2 second time |----------------------|
 |8/9--7-7-8-8/9--8/9---| ends with: |8/9--7-7-8-8/9--9/\---|
 |8/9--7-7-8-8/9--8/9---| |8/9--7-7-8-8/9--9/\---|
 |8/9--7-7-8-8/9--8/9---| |8/9--7-7-8-8/9--9/\---|

 


 All automatic All automatic


 


 Now this


 

 
 |------------------------------|
 |------------------------------| This figure is repeated
 |------------7-----------------| fifteen times inserting
 |-9---7-8-9----9--7-7-8-9--7-8-| X 15 the "get automatic" and
 |-9---7-8-9----9--7-7-8-9--7-8-| "all automatic ah" things
 |-9---7-8-9----9--7-7-8-9--7-8-| , hear the song for it.

 


 


 ..and the songs end with this


 P.M.......


 

 
 |------------------------------|
 |------------------------------|
 |------------------------------|
 |-9-9-9-9-9-9-9-9-9------------|
 |-9-9-9-9-9-9-9-9-9------------|
 |-9-9-9-9-9-9-9-9-9------------| 


Important: The song above is NOT stored on the Chordie server. The original song is hosted at www.guitartabs.cc. Chordie works as a search engine and provides on-the-fly formatting. Chordie does not index songs against artists'/composers' will. To remove this song please click here.

This song is displayed as text-only. Transposing and tuning is only available for chordpro-songs.
Rate #1 of 4 versions

Jango Player

Login - add to songbook

SHARE PAGE  



You need to log in to post comments