Guitar Tabs, Chords and Lyrics
Major upgrade!! After one year development the new version of Chordie is now online! Please give feedback.


-1  Mudvayne

 
 -----------------------------------------------------------------------------------------------

Artist - MuDvAyNe
Album - L.D.50 (2000)
Song - - 1
Tabbed - Jakob Jugovic
Mail - jakobjugovic@gmail.com
Year - 2009
 
 -----------------------------------------------------------------------------------------------

TUNING:
[G]  
[D]  
[A]  
[E]  
[B]  
p - pull
h - hammer on
/ - slide upwards
\ - slide downwards
x - ghost note
X - left hand ghost note
S - slapping
F - 'fingerslapping'
P - popping
~ - vibrato
o - 1/4 (timescale)
 
 -----------------------------------------------------------------------------------------------

VERSE:
o . . . o . . . o . . . o . . .
 
 G |---------------------------------|
 D |---------------------------------|
 A |---------------------------------| x3
 E |-----2/6-------------------------|
 B |-3p0-----3p0-----3p0-0-0---0-----|

o . . . o . . . o . . . o . . .
 
 G |---------------------------------|
 D |---------------------------------|
 A |---------------------------------|
 E |-----2/6-------------------------|
 B |-3p0-----3p0-----3p0-0-0---0---x-|

o . . . o . . . o . . . o . . .
 
 G |---------------------------------|
 D |---------------------------------|
 A |-------1-------------------------| x4
 E |-----2---------------------------|
 B |-3p0-----3p0---x-3p0-0-0---0---x-|

o . . . o . . . o . . . o . . .
 
 G |---------------------------------|
 D |---------------------------------|
 A |---------------------------------| x3
 E |-----2/6-------------------------|
 B |-3p0-----3p0---x-3p0-0-0---0---x-|

o . . . o . . . o . . . o . . .
 
 G |---------------------------------|
 D |---------------------------------|
 A |-----------------------------2---|
 E |-----2/6-------------------------|
 B |-3p0-----3p0-----3p0-x-0---x-----|

o . . . o . . . o . . . o . . .
 
 G |---------------------------------|
 D |---------------------------------|
 A |-------1-------------------------| x3
 E |-----2---------------------------|
 B |-3p0-----3p0---x-3p0-0-0---0---x-|

o . . . o . . . o . . . o . . .
 
 G |---------------------------------|
 D |---------------------------------|
 A |-------1-----------------x---2---|
 E |-----2---------------------------|
 B |-3p0-----3p0---x-3p0-0-0---0-----|

CHORUS:
o . . . o . . . o . . . o . . .
 
 G |---------------------------------|
 D |---------------------------------|
 A |-------1-------------------------| x4
 E |-----2---------------------------|
 B |-3p0-----3p0-----3p0-x-0---0-----|

S S S S S S S S
o . . . o . . . o . . . o . . .
 
 G |-------3-------------------------|
 D |---------------------------------|
 A |---------------------------------| x4
 E |-----2---------------------------|
 B |-3p0-----3p0-----3p0-x-0---0---0-|

S S P S S S S S S
VERSE:
o . . . o . . . o . . . o . . .
 
 G |---------------------------------|
 D |---------------------------------|
 A |---------------------------------| x4
 E |-----2/6-------------------------|
 B |-3p0-----3p0-----3p0-0-0---0-----|

o . . . o . . . o . . . o . . .
 
 G |---------------------------------|
 D |---------------------------------|
 A |-------1-------------------------| x4
 E |-----2---------------------------|
 B |-3p0-----3p0---x-3p0-0-0---0---x-|

o . . . o . . . o . . . o . . .
 
 G |---------------------------------|
 D |---------------------------------|
 A |---------------------------------| x4
 E |-----2/6-------------------------|
 B |-3p0-----3p0-----3p0-0-0---0-----|

o . . . o . . . o . . . o . . .
 
 G |---------------------------------|
 D |---------------------------------|
 A |-------1-------------------------| x4
 E |-----2---------------------------|
 B |-3p0-----3p0---x-3p0-0-0---0---x-|

CHORUS:
o . . . o . . . o . . . o . . .
 
 G |---------------------------------|
 D |---------------------------------|
 A |-------1-------------------------| x4
 E |-----2---------------------------|
 B |-3p0-----3p0-----3p0-x-0---0-----|

S S S S S S S S
o . . . o . . . o . . . o . . .
 
 G |-------3-------------------------|
 D |---------------------------------|
 A |---------------------------------| x8
 E |-----2---------------------------|
 B |-3p0-----3p0-----3p0-x-0---0---0-|

S S P S S S S S S
BRIDGE:
o . . . o . . . o . . . o . . .
 
 G |---------------------------------|
 D |---------------------------------|
 A |---------------------------------|
 E |---------------------------------|
 B |---------5-3-5-3-2-3-2-3-5-3-5-6-|

[F] [F] [F] [F] [F] [F] [F] [F] [F] [F] [F] [F]  
o . . . o . . . o . . . o . . .
 
 G |---------------------------------|
 D |---------------------------------|
 A |---------------------------------| x6
 E |---------------------------------|
 B |-2-3-2-3-5-3-5-3-2-3-2-3-5-3-5-6-|

[F] [F] [F] [F] [F] [F] [F] [F] [F] [F] [F] [F] [F] [F] [F] [F]  
o . . . o . . . o . . . o . . .
 
 G |---------------------------------|
 D |---------------------------------|
 A |---------------------------------| x3
 E |---------------------------------|
 B |-2-3-2-3-5-3-5-3-2-3-2-3-x-x---x-|

F F F F F F F F F F F F S S S
o . . . o . . . o . . . o . . .
 
 G |---------------------------------|
 D |---------------------------------|
 A |---------------------------------|
 E |---------------------------------|
 B |-2-3-2-3-5-3-5-3-2-3-2-3---------|

[F] [F] [F] [F] [F] [F] [F] [F] [F] [F] [F] [F]  
MID PART:
o . . . o . . . o . . . o . . .
 
 G |---------------------------------|
 D |---------------------------------|
 A |-------x-------------------------|
 E |---------------------------------|
 B |-3p2-x---3p2-----3p2-x-2---2-----|

S S P S S S S S
o . . . o . . . o . . . o . . .
 
 G |---------------------------------|
 D |---------------------------------|
 A |-------x-------------------------|
 E |---------------------------------|
 B |-3p2-x---3p2-----3p2-x-2---------|

S S P S S S S
o . . . o . . . o . . . o . . .
 
 G |---------------------------------|
 D |---------------------------------|
 A |-------x-------------------------|
 E |---------------------------------|
 B |-3p2-x---3p2-----3p2-x-2---2---x-|

S S P S S S S S S
o . . . o . . . o . . . o . . .
 
 G |---------------------------------|
 D |---------------------------------|
 A |-------x-------------------------|
 E |---------------------------------|
 B |-3p2-x---3p2-----3p2-x-2---------|

S S P S S S S
o . . . o . . . o . . . o . . .
 
 G |---------------------------------|
 D |---------------------------------|
 A |-------4-------------------------|
 E |-----4---------------------------|
 B |-3p2-----3p2---x-3p2-x-2---2---x-|

o . . . o . . . o . . . o . . .
 
 G |---------------------------------|
 D |---------------------------------|
 A |-------4/5-----------------------|
 E |-----4---------------------------|
 B |---2-------3-----3p2-x-2---2---x-|

o . . . o . . . o . . . o . . .
 
 G |---------------------------------|
 D |---------------------------------|
 A |-------4-------------------------|
 E |-----4---------------------------|
 B |-3p2-----3p2---x-3p2-x-2---2---x-|

o . . . o . . . o . . . o . . .
 
 G |---------------------------------|
 D |---------------------------------|
 A |-------4-------------------------|
 E |-----4---------------------------|
 B |-3p2-----3p2---x-3p2-x-x-x-x-2---|

o . . . o . . . o . . . o . . .
 
 G |---------------------------------|
 D |---------------------------------|
 A |-------4-------------------------|
 E |-----4---------------------------|
 B |-3p2-----3p2-----3p2-x-2---2-----|

o . . . o . . . o . . . o . . .
 
 G |---------------------------------|
 D |---------------------------------|
 A |-------4-------------------------|
 E |-----4------------------/7\\-----|
 B |-3p2-----3p2-----3p2-x-x---------|

o . . . o . . . o . . . o . . .
 
 G |---------------------------------|
 D |---------------------------------|
 A |-------4/5-----------------------|
 E |---------------------------------|
 B |---2/3-----3-----3p2-x-2---2/3---|

o . . . o . . . o . . . o . . .
 
 G |---------------------------------|
 D |---------------------------------|
 A |-------4-------------------------|
 E |-----4---------------------------|
 B |-3p2-----3p2-----3p2-x-2---------|

CHORUS:
o . . . o . . . o . . . o . . .
 
 G |-------3-------------------------|
 D |---------------------------------|
 A |-------1-------------------------| x3
 E |-----2---------------------------|
 B |-3p0-----3p0-----3p0-0-0---0-----|

S S P S S S S S
o . . . o . . . o . . . o . . .
 
 G |-------3-------------------------|
 D |---------------------------------|
 A |-------1-------------------------|
 E |-----2---------------------------|
 B |-3p0-----3p0-----3p0-0-0////\\\\-|

S S P S S S S
o . . . o . . . o . . . o . . .
 
 G |-------3-------------------------|
 D |---------------------------------|
 A |-------1-------------------------| x4
 E |-----2---------------------------|
 B |-3p0-----3p0-----3p0-0-0---0-----|

S S P S S S S S
o . . . o . . . o . . . o . . .
 
 G |-------3-------------------------|
 D |---------------------------------|
 A |-------1-------------------------|
 E |-----2---------------------------|
 B |-3p0-----3p0-----3p0-0-0-x-x---x-|

S S P S S S S S S S
o . . . o . . . o . . . o . . .
 
 G |-------3-------------------------|
 D |---------------------------------|
 A |-------1-------------------------|
 E |-----2---------------------------|
 B |-3p0-----3p0-----3p0-0-0-x-x-x-x-|

S S P S S S S S S S S
o . . . o . . . o . . . o . . .
 
 G |-------3-------------------------|
 D |---------------------------------|
 A |-------1-------------------------|
 E |-----2---------------------------|
 B |-3p0-----3p0-----3p0-0-0-x-x---x-|

S S P S S S S S S S
o . . . o . . . o . . . o . . .
 
 G |-------3-------------------------|
 D |---------------------------------|
 A |-------1-------------------------|
 E |-----2---------------------------|
 B |-3p0-----3p0-----3p0-0-0-x-x---x-|

S S P S S S S S S S
o . . . o . . . o . . . o . . .
 
 G |-------3-------------------------|
 D |---------------------------------|
 A |-------1-------------------------|
 E |-----2---------------------------|
 B |-3p0-----3p0---------------------|

S S P S

Important: The song above is NOT stored on the Chordie server. The original song is hosted at www.guitartabs.cc. Chordie works as a search engine and provides on-the-fly formatting. Chordie does not index songs against artists'/composers' will. To remove this song please click here.

Text color:
Chord color:
Chord grids: 
Font size:    
Page size: 

A B D E F G
Rate #4 of 5 versions

Jango Player

Login - add to songbook

SHARE PAGE  




You need to log in to post comments