Guitar Tabs, Chords and Lyrics
Major upgrade!! After one year development the new version of Chordie is now online! Please give feedback.


IMN   Mudvayne

 
 |------------------------|------------------------------|
 |------------------------|------------------------------|
 |4-----------------------|------------------------------|
 |4-0000----0000----0000--|-0000-0000-0000-0000-00000000-|
 |------------------------|------------------------------|

 


 


 Riff 2 x1 (3)(3)(3)


 sE. s e e sssssss sss se. e sssssssse


 

 
 |-----------------------|-------------------------|
 |-----------------------|----------------7-6-5----|
 |-----------------------|--------------05-4-3-3---|
 |-0---10^10^-4^-0-0-065-|-00--010^--4^---------3\-|
 |----------------3-3----|---3/--------------------|

 


 1.51.5 1 1.5 1


 sss se. e sssssss ssss [(]e [3]e [)]e ssssssss


 

 
 |----------------------|------13-13-13----------|
 |----------------------|------12-12-12----------|
 |----------------------|------11-11-11----------|
 |-00--010^--4^-0-0-065-|-2235/---------00-02235-|
 |---3/----------3-3----|-----------------3------|

 


 1.5 1


 


 Fill 1 x1


 sE. s e e sssssss sssse. e ss. s. s. s.


 

 
 |-----------------------|----------------------------|
 |-----------------------|----------------------------|
 |-----------------------|----------------------------|
 |-0---10^10^-4^-0-0-065-|-00-010^--4^-0--------------|
 |----------------3-3----|---3----------5^-7^-10^-13^-|

 


 1.51.5 1 1.5 1 2 2.52.5 2.5


 


 Riff 3 x1 ( 3 )


 sss se. e sssssss ssss e e e sssSssss


 

 
 |----------------------|------13-13-13----------|
 |----------------------|------12-12-12----------|
 |----------------------|------11-11-11----------|
 |-00--010^--4^-0-0-065-|-00-0----------00--2235-|
 |---3/----------3-3----|---3-------------3------|

 


 1.5 1


 


 Riff 4 x1


 e sssse t t s SttsStts e ssssse s ss ss ss


 

 
 |---------101010-999-----|----------10\9--------|
 |---------X-X-X--XXX-666-|--------------8\73\22-|
 |-----5---8-8-8--777-XXX-|-----5----8-\7--------|
 |-0-30-30------------666-|-0-30-300-----8\73\22-|
 |------------------------|----------------------|

 


 


 e sssse t t s SttsStts e ssssse s s s ss ss


 

 
 |---------101010-999-----|----------12\10--------|
 |---------X-X-X--XXX-666-|---------------8\73\22-|
 |-----5---8-8-8--777-XXX-|-----5----10\8---------|
 |-0-30-30------------666-|-0-30-300------8\73\22-|
 |------------------------|-----------------------|

 


 


 Riff 2 x1


 


 Fill 2 x1 (3)( 6 )


 sE. s e e sssssss sss se. e sssss ss s s s


 

 
 |-----------------------|-----------------710-------13-|
 |-----------------------|--------------0-6---9----12---|
 |-----------------------|---------------5-----8/11-----|
 |-0---10^10^-4^-0-0-065-|-00--010^--4^-----------------|
 |----------------3-3----|---3/-------------------------|

 


 1.51.5 1 1.5 1


 


 Riff 3 x1


 


 Riff 4 x2


 


 Riff 5 x4


 ts. s tt e e ts. s s e e


 

 
 |--------------------------------|
 |-22-(2)00-(0)-2-11-(1)1/8-(8)-1-|
 |--------------------------------|
 |-22-(2)00-(0)-2-11-(1)1/8-(8)-1-|
 |--------------------------------|

 


 


 Riff 6 x2


 t t t t t t t t t t t t t t t t tttttttttttttttt


 

 
 |-----15----15----15----15----15----8--8--8--8--8--| right hand
 |---14--14------14--14------14--14-8-8---8-8---8-8-| fingering below
 |-13------13--13------13--13------6---6-6---6-6----| t = thumb
 |--------------------------------------------------| i = index
 |--------------------------------------------------| m = middle

 


 t i m i t m t i m i t m t i m i timitmtimitmtimi


 


 Riff 7 x2


 ss e. s ssssssssss ss e. s ss ssssssss


 

 
 |----------------------|-----------------------|
 |--5/12--10\8----------|--5/12--10\8-----------|
 |-7----------877733-35-|-6----------1066----66-|
 |------------------5---|----------------88-8---|
 |----------------------|------------------6----|

 


 


 ss e. s sss s s sssss ss e. s ss ssssssss


 

 
 |-------------------------|-----------------------|
 |--5/12--10\8-------------|--5/12--10\8-----------|
 |-7----------87/101033-35-|-6----------1066----66-|
 |---------------------5---|----------------88-8---|
 |-------------------------|------------------6----|


Important: The song above is NOT stored on the Chordie server. The original song is hosted at www.guitartabs.cc. Chordie works as a search engine and provides on-the-fly formatting. Chordie does not index songs against artists'/composers' will. To remove this song please click here.

This song is displayed as text-only. Transposing and tuning is only available for chordpro-songs.
Rate #1 of 1 versions

Jango Player

Login - add to songbook

SHARE PAGE  



You need to log in to post comments