Guitar Tabs, Chords and Lyrics
Major upgrade!! After one year development the new version of Chordie is now online! Please give feedback.


Prod   Mudvayne

 
 G||--------||-------------------------|-----------------------||
 C||*------*||*------------------------|----------------------*||
 G||*-REST-*||*------------------------|----------------3-----*||
 C||--------||---x2p0--x2p0--x2h3-x2p0-|-x2p0--x2h3--2-----0---||

 


 cont.. (not to sure about this part) x2


 

 
 G||---------------------------------------|--------------------------------------||
 C||*--------------------------------------|-------------------------------------*||
 G||*--2--2--2--3--2--4--3--2--------------|--2--2--2--3--2--4--3--2-------------*||
 C||---------------------------3h4--4h5-3--|--------------------------3h4--4h5-3--||

 


 [+] [+] [+] [+] [+] [+] [+] [+] [+] [+] [+] [+] [+] [+] [+] [+] 


 

 
 G||-------------------------|----------------------||
 C||-------------------------|----------------------||
 G||-------------------------|---------------3------||
 C||---x2p0--x2p0--x2h3-x2p0-|-x2p0-x2h3--2-----0---||

 


 


 Pre Chorus


 

 
 G||--------------------------------------||
 C||--------------------------------------||
 G||--------------------------------------||
 C||--x2-0--2-0--0h2-0--x2-0--2-0--0h2-0--||

 


 


 x4


 

 
 G||--------------------------------||
 C||*-------------REST-------------*||
 G||*-------------REST-------------*||
 C||--------------------------------||

 


 


 X2


 

 
 G||---------------------------------------|--------------------------------------||
 C||*--------------------------------------|-------------------------------------*||
 G||*--2--2--2--3--2--4--3--2--------------|--2--2--2--3--2--4--3--2-------------*||
 C||---------------------------3h4--4h5-3--|--------------------------3h4--4h5-3--||

 


 [+] [+] [+] [+] [+] [+] [+] [+] [+] [+] [+] [+] [+] [+] [+] [+] 


 Chorus 4x


 

 
 G||------------------------||
 C||*----------------------*||
 G||*--2/3--2/3--2/3--2/3--*||
 C||------------------------||

 


 


 Verse 1 4x


 

 
 G||------------------------||
 C||*----------------------*||
 G||*----------------------*||
 C||---2--------------------||

 


 + (let note ring)


 

 
 G||------------2--------------2--4------------2--------------2--0h2--------||
 C||-----------------------------------------------------------------0------||
 G||------------------------------------------------------------------------||
 C||--3\2--0-2-----3\2--0-2-0--------3\2--0-2-----3\2--0-2-0----------------||

 


 + + + . + + + + . . + + + . + + + + . . .


 

 
 G||------------2--------------2--4------------2--------------2--0h2--------||
 C||-------------------------------------------------------------------x-x--||
 G||-----------------------------------------------------------------x-x-x--||
 C||--3\2--0-2-----3\2--0-2-0--------3\2--0-2-----3\2--0-2-0----------------||

 


 + + + . + + + + . . + + + . + + + + . . + + +


 

 
 G||------------2--------------2--4------------2--------------2--0h2--------||
 C||-----------------------------------------------------------------0------||
 G||------------------------------------------------------------------------||
 C||--3\2--0-2-----3\2--0-2-0--------3\2--0-2-----3\2--0-2-0----------------||

 


 + + + . + + + + . . + + + . + + + + . . .


 

 
 G||------------2--------------2--4------------2--------------2--0h2--------||
 C||-----------------------------------------------------------------0--x---||
 G||--------------------------------------------------------------------x---||
 C||--3\2--0-2-----3\2--0-2-0--------3\2--0-2-----3\2--0-2-0----------------||

 


 + + + . + + + + . . + + + . + + + + . . . +


 

 
 G||-----------------------------------------------------(3)--||don't strum last not
 C||----------2px----------0h2px----------2px----------2h(3)--||just tap it with
 G||-----------------------------------------------------(3)--||left hand
 C||--3\2--x-------3\2--x---------3\2--x-------3\2--x---------||

 


 + + . + + . + + . + + .


 


 Pre chorus X2


 

 
 G||---------------------------------------|--------------------------------------||
 C||*--------------------------------------|-------------------------------------*||
 G||*--2--2--2--3--2--4--3--2--------------|--2--2--2--3--2--4--3--2-------------*||
 C||---------------------------3h4--4h5-3--|--------------------------3h4--4h5-3--||

 


 [+] [+] [+] [+] [+] [+] [+] [+] [+] [+] [+] [+] [+] [+] [+] [+] 


 Chorus 4x


 

 
 G||------------------------||
 C||*----------------------*||
 G||*--2/3--2/3--2/3--2/3--*||
 C||------------------------||

 


 


 Pre Bridge


 

 
 G||-------------------------------------|-----------------------------------||
 C||-------------------2-3-5----------5--|---------------3/5-5------------5--||
 G||--x0-2--0-2-3-5--5--------5-7-8p7-3--|--x0-2-x2-3--5-------3--5-7-8p7-3--||
 C||-------------------------------------|-----------------------------------||
 G||----------------6/9-----------------|----------------------------------||
 C||-------------0------6/9----------5--|-------------------------------5--||
 G||--x0-2-x2-3--------------5-7-8p7-3--|--x0-2-x2-3--3-4-x4-5--5-7-8p7-3--||
 C||------------------------------------|----------------------------------||

 


 


 Bridge 3x


 

 
 G||------------------------------------------------------||
 C||*-------------------------------------------------5--*||
 G||*--5-7-7-7h8p7--5-7-7-7h8p7--5-7-7-7h8p7--5-7-8p7-3--*||
 C||------------------------------------------------------||
 G||-----------------------------------------------------||
 C||-------------------------------------------------5x--||
 G||--5-7-7-7h8p7--5-7-7-7h8p7--5-7-7-7h8p7--5-7-8p7-3x--||
 C||-----------------------------------------------------||

 


 Break X4


 

 
 G||--------------------------------||
 C||*-------------REST-------------*||
 G||*-------------REST-------------*||
 C||--------------------------------||

 


 


 x4 x4


 

 
 G||------------------------------/6\---||------------------------/6\---||
 C||*----------------------------------*||*----------------------------*||
 G||*-------------------------x--------*||*----------------------------*||
 C||---2--2-2--2-2--2-2--2--x---x-------||---2--2-2--2-2--2-2--2--------||

 


 


 Interlude ^(bend and release)


 

 
 G||--------------------------------------|---------------------------------x-8---||
 C||-----7-----9-----7^\6-----7-----6-----|------7-----9-----7^\6-----7-----x-7---||
 G||--6-----6-----6--------5-----5-----5--|---6-----6-----6--------5-----5--------||
 C||--------------------------------------|---------------------------------------||
 G||-----------------------------------|--------------------------8-8----8-----8--||
 C||-----7-----9-----7^\6-----7-----8~-|-----7-----9-----7^\6---------7----7------||
 G||--6-----6-----6--------5-----5-----|--6-----6-----6--------5-------------5----||
 C||-----------------------------------|------------------------------------------||
 G||--------------------------------------|---------------------------------x-8---||
 C||-----7-----9-----7^\6-----7-----6-----|------7-----9-----7^\6-----7-----x-7---||
 G||--6-----6-----6--------5-----5-----5--|---6-----6-----6--------5-----5--------||
 C||--------------------------------------|---------------------------------------||
 G||-----------------------------------|--------------------------8--8------------||
 C||-----7-----9-----7^\6-----7-----8~-|-----7-----9-----7^\6-----------7--7\-----||
 G||--6-----6-----6--------5-----5-----|--6-----6-----6--------5------------------||
 C||-----------------------------------|------------------------------------------||
 G||-----------------------------------|--------------------------------8--8\-----||
 C||----(7)---(9)----7^\6-----7----6---|-----7-----9-----7^\4-----7---------------||
 G||-(6)---(6)----6--------5-----5---5-|--6-----6-----6--------5-----5------------||
 C||-----------------------------------|------------------------------------------||
 G||-------------------------9--8--|------------------------||
 C||-------------------------------|--6---------------------||
 G||---0--0------0----0----5-------|------5----4----3--0----||
 C||---0--0------0----0------------|------------------------||
 G||--------------------------------------|---------------------------------x-8---||
 C||-----7-----9-----7^\6-----7-----6-----|------7-----9-----7^\6-----7-----x-7---||
 G||--6-----6-----6--------5-----5-----5--|---6-----6-----6--------5-----5--------||
 C||--------------------------------------|---------------------------------------||
 G||----------------------------------------|----------------------------------------||
 C||----------------------------------------|----------------------------------------||
 G||------6-----7-----6^\5-----6-----5---4--|------6-----7-----6^\5-----6-----5---4--||
 C||--5-5---5-5---5-5------4-4---4-4---4----|--5-5---5-5---5-5------4-4---4-4---4----||

 


 


 x5


 

 
 G||---------5------------5-------||--------5---------|---------------------------||
 C||*----------------------------*||------------------|---------------------------||
 G||*--------3------------3------*||--------3---------|-----------3---------------||
 C||---2-2-----4-0--2-2-----4-0---||--2-2------4---0--|--2---2----------4------0--||

 


 


 Verse 3 4x


 

 
 G||------------------------||
 C||*----------------------*||
 G||*----------------------*||
 C||---2--------------------||

 


 + (let note ring)


 


 

 
 G||------------2--------------2--4------------2--------------2--0h2---------||
 C||-----------------------------------------------------------------0-------||
 G||-------------------------------------------------------------------------||
 C||--3\2--0-2-----3\2--0-2-0--------3\2--0-2-----3\2--0-2-0------------3\2--||

 


 + + + . + + + + . . + + + . + + + + . . . +


 Pre chorus X2


 

 
 G||---------------------------------------|--------------------------------------||
 C||*--------------------------------------|-------------------------------------*||
 G||*--2--2--2--3--2--4--3--2--------------|--2--2--2--3--2--4--3--2-------------*||
 C||---------------------------3h4--4h5-3--|--------------------------3h4--4h5-3--||

 


 [+] [+] [+] [+] [+] [+] [+] [+] [+] [+] [+] [+] [+] [+] [+] [+] 


 Chorus\Outro


 

 
 G||------------------------|------------------------||
 C||------------------------|------------------------||
 G||---2/3--2/3--2/3--2/3---|-----------REST---------||
 C||------------------------|------------------------||
 G||------------------------|----------------X-------||
 C||------------------------|----------------------X-||
 G||---2/3--2/3--2/3--2/3---|------X------X--------X-||
 C||------------------------|------X------------X----||

 


 + + . + .


 

 
 G||------------------------|------------------------||
 C||------------------------|------------------------||
 G||---2/3--2/3--2/3--2/3---|-----------REST---------||
 C||------------------------|------------------------||


Important: The song above is NOT stored on the Chordie server. The original song is hosted at www.guitartabs.cc. Chordie works as a search engine and provides on-the-fly formatting. Chordie does not index songs against artists'/composers' will. To remove this song please click here.

This song is displayed as text-only. Transposing and tuning is only available for chordpro-songs.
Rate #2 of 2 versions

Jango Player

Login - add to songbook

SHARE PAGE  




You need to log in to post comments