Guitar Tabs, Chords and Lyrics
Server problems seems to be fixed. Chordie has been experiencing problems with songs disappearing. These issues now seems to be fixed, but still verifying the fix. If you find anything strange, please email admin@chordie.com.


The End of All Things to Come  Mudvayne

Song: The End Of All Things To Come
Band: Mudvayne
Tuning:F s=slap p=pluck
[C]  
[G]  
[C]  
Intro
 
 F[-------------------------------]
 C[-------------------------------]
 G[-------------------------------] x4
 C[-3-2-0-2-1-0-3-2-0-0-----------]

Chorus
 
 F[--------------------------------------------]
 C[--------------------------------------------]
 G[--------------------------------------------]
 C[-3-2-0-0---3-2-0-0---3-2-0-2-0-2-0--0--0----]

All over with
 
 F[----------------------------------------------------------]
 C[----------------------------------------------------------]
 G[----------------------------------------------------------]
 C[-3-2-0-2-1-0-3-2-0-2-1-0-3-2-0-2-0-2-0--0--0--------------]

F**k all the flags, the greed, the world leaders
Verse 1
 
 F[--------------X------------------------------X-----X------]
 C[---1-----0--------1-----0------1--11-0--------------------]
 G[-----X-X--------X---X-X---X------------X-X-X---X-X---X----]
 C[0----------0----------------0--------------------------/5-]

s p s s p s p s p s s p s s s ss s s s s p s s p s s
We're killing, every f**kin thing, until some-
 
 F[------------------------------------------0-----0-----0---]
 C[-------0------1-1-1-0----1--11-0--------------------------]
 G[-6--66----------------------------------X---X-X---X-X-----]
 C[---------0------------0----------------------------------/5 

s ss s s s s s s s s ss s s p s s p s p s
-body gets this f**kin point, the point im tryin to make, I..
 
 F[--------------------------X-------------------------------]
 C[-----0-------1-1-1-0--------1-1-0------1h0---------1--11-0]
 G[-6-6---X-X-X-----------X----------------------------------]
 C[---------------------0------------0----------0--X---------]

s s s s s s s s s s s s p s s s s s s s s ss s
..lead, the mice on parade, down to the river....
 
 F[--------------------------------------0------0---------------]
 C[----1-1-1-0------1--11-0------------------------------0------]
 G[----------------------------------X-X----X-X-----------------]
 C[X-----------0------------/5---------------------/12-------0--]

s s s s s s s ss s s s s p s s p s p s
....of kool aid , and open up the flood gates, we need a barrel....
 
 F[----------------------------------------X-----------------]
 C[-1-1-1-0------1--11-0--------1-1-1-0--------1--11-0-------]
 G[-----------------------X-X-X------------------------------]
 C[---------0----------------------------X-------------0-----]

s s s s s s ss s s s s s s s s s p s ss s s
...of cyanide, a pile of strichnyne, until the whole ***...
 
 F[----------------------------------------------------------]
 C[-1-1-1-1h0-----1--11-0------------------------------------]
 G[----------------------------------------------------------]
 C[-----------0-----------X------0-0-0-0-0-0-0---------------]

...[s]wo[s]rl[s]d [s]is [s] dea[s]d, [ss] [s]st[s]art over again.
Verse 2
 
 F[--------------X------------------------------X-----X------]
 C[---1-----0--------1-----0------1--11-0--------------------]
 G[-----X-X--------X---X-X---X------------X-X-X---X-X---X----]
 C[0----------0----------------0--------------------------/5-]

s p s s p s p s p s s p s s s ss s s s s p s s p s s
stop talking, negotiating, your feeble...
 
 F[---------------X--------------------------14------------]
 C[-1--11-0---------1-1-0-----1--11-0---/12-----X-12\0-----]
 G[---------X-X-X------------------------------------------]
 C[-----------------------0-----------------------------0--]

s ss s s s s p s s s s s ss s s p s s s s
...attempts toward world peace, ha! gimme a f**kin break
 
 F[----------------------------------------X-----------------]
 C[-1-1-1-0------1--11-0--------1-1-1-0--------1--11-0-------]
 G[-----------------------X-X-X------------------------------]
 C[---------0----------------------------X-------------0-----]

s s s s s s ss s s s s s s s s s p s ss s s
we need worldwide genocide, and ___________ suicide (I cant think of the
words!!:(
 
 F[----------------------------------------------------------]
 C[-1-1-1-1h0-----1--11-0------------------------------------]
 G[----------------------------------------------------------]
 C[-----------0-----------X------0-0-0-0-0-0-0---------------]

And[s] w[s]he[s]n [s]the [s]whol[s]e *[ss]** [s]wo[s]rld is dead, there's your f**kin peace
Bridge
v it doesnt really matter on this note, just
 
 F[---------------------------------------------] slide it up to any
 C[---------------------------------------------] point really.
 G[---------------------------------------------]
 C[1--0---X--1-1-0----1--0---X----0---/9?-------]

oxygen wasters!!!
 
 F[----------------------------------------------------------]
 C[----------------------------------------------------------] on the last one just
 G[----------------------------------------------------------] stop on the 2
 C[0--0--1--0--5-4-3-0-2h3h2--0--0--1--0--5-4-3-0-2h3h2------]


Important: The song above is NOT stored on the Chordie server. The original song is hosted at www.guitartabs.cc. Chordie works as a search engine and provides on-the-fly formatting. Chordie does not index songs against artists'/composers' will. To remove this song please click here.

Text color:
Chord color:
Chord grids: 
Font size:    
Page size: 

C G
Rate #1 of 1 versions

Login - add to songbook

SHARE PAGE  



You need to log in to post comments