Guitar Tabs, Chords and Lyrics
Major upgrade!! After one year development the new version of Chordie is now online! Please give feedback.


Exogenesis: Symphony, Part 2: Crossâ??Pollination   Muse

 
 G|----------|
 D|----------|
 A|8~--------|
 E|----------| 

 


 


 I think that these are contrabass notes but I'm not sure


 Play this part softly [1:04]


 


 

 
 G|------------------------------5~----------------------------|
 D|-------------------------5~-------------6~--------6~--------|
 A|8~---6~---7~---8~---8~-------------8~--------3~--------3~---|
 E|------------------------------------------------------------|

 


 


 Fade in (electric bass):


 


 

 
 G|----------|
 D|----------|

 


 A|3(x32)----|


 

 
 E|----------|
 G|------------------|------------------|
 D|------------------|------------------|
 A|333-3-33-333-3-33-|---------333-3-33-|
 E|------------------|333-3-33----------|
 G|------------------|------------------|
 D|333-3-33----------|------------------|
 A|---------333-3-33-|------------------|
 E|------------------|333-3-33-333-3333-|
 G|------------------|------------------|
 D|------------------|------------------|
 A|333-3-33-333-3-33-|---------333-3-33-|
 E|------------------|333-3-33----------|
 G|------------------|------------------|
 D|333-3-33----------|------------------|
 A|---------333-3-33-|------------------|
 E|------------------|333-3-33-333-\111-|
 G|----8--8-----8--8-|-------------8--8-|
 D|------------------|------------------|
 A|666---6--666---6--|---------666---6--|
 E|------------------|666-6-66----------|
 G|-------------8--8\|------------------|
 D|666-6-66----------|------------------|
 A|---------666---6--|------------------|
 E|------------------|333-3-33-33331111-|
 G|----8--8-----8--8-|-------------8--8-|
 D|------------------|------------------|
 A|666---6--666---6--|---------666---6--|
 E|------------------|666-6-66----------|
 G|-------------8--8\|--------------------------|
 D|666-6-66----------|--------------------------|
 A|---------666---6--|---------------------3~---|
 E|------------------|333-3-33-333\1-1-1--------|

 


 


 Didn't hear bass but here's tab if You Want to play song till


 the end along with piano. There are some timings for A string notes


 to make this easier. Optional outro:


 


 [2:55] [3:05] [3:21] [3:35] 


 

 
 G|----------------------------------------------------------------------|
 D|----------------------------------------------------------------------|
 A|3~-------------3~-----------------------3~-------6~--5~--------3~-----|
 E|-----4~---1~--------4~--------4~---1~---------------------------------|


Important: The song above is NOT stored on the Chordie server. The original song is hosted at www.guitartabs.cc. Chordie works as a search engine and provides on-the-fly formatting. Chordie does not index songs against artists'/composers' will. To remove this song please click here.

This song is displayed as text-only. Transposing and tuning is only available for chordpro-songs.
Rate #1 of 1 versions

Login - add to songbook

SHARE PAGE  



You need to log in to post comments