Guitar Tabs, Chords and Lyrics
Major upgrade!! After one year development the new version of Chordie is now online! Please give feedback.


Exogenesis: Symphony, Part 3: Redemption  Muse

EXOGENESIS: SYMPHONY PART 3 (REDEMPTION) (Bassline)
As recorded by Muse
(From the 2009 Album REDEMPTION)
Transcribed by Unregistered
Words and Music by Matthew Bellamy
Gtr I (D A D G) - 'Bass'
Q=181
[3/4] Gtr I
Wx32 H. +H. +H.
 
 |-----------|---------|----------|----------|
 |-----------|-0-------|-(0)------|-(0)------|
 |-----------|---------|----------|----------|
 |-----------|---------|----------|----------|

+H. H. +H. +H. +H.
 
 |----------|---------|----------|----------|--------|
 |-(0)------|-1-------|-(1)------|-(1)------|-(1)----|
 |----------|---------|----------|----------|--------|
 |----------|---------|----------|----------|--------|

H. +H. +H. +H.
 
 |---------|----------|----------|----------|
 |-2-------|-(2)------|-(2)------|-(2)------|
 |---------|----------|----------|----------|
 |---------|----------|----------|----------|

H. +H. +H. +H.
 
 |---------|----------|----------|--------|
 |-2-------|-(2)------|-(2)------|-(2)----|
 |---------|----------|----------|--------|
 |---------|----------|----------|--------|

H. +H. +H. +H.
 
 |---------|----------|----------|----------|
 |---------|----------|----------|----------|
 |-3-------|-(3)------|-(3)------|-(3)------|
 |---------|----------|----------|----------|

H. +H. +H. +H.
 
 |---------|----------|----------|--------|
 |---------|----------|----------|--------|
 |-2-------|-(2)------|-(2)------|-(2)----|
 |---------|----------|----------|--------|

H. +H. +H. +H.
 
 |---------|----------|----------|----------|
 |---------|----------|----------|----------|
 |-0-------|-(0)------|-(0)------|-(0)------|
 |---------|----------|----------|----------|

H. +H. +H. +H.
 
 |---------|----------|----------|--------|
 |---------|----------|----------|--------|
 |---------|----------|----------|--------|
 |-5-------|-(5)------|-(5)------|-(5)----|

Q Q Q Q Q Q Q Q Q Q Q Q
 
 |----------|----------|----------|----------|
 |----------|----------|----------|----------|
 |-1--1--1--|-1--1--1--|-1--1--1--|-1--1--1--|
 |----------|----------|----------|----------|

Q Q Q Q Q Q Q Q Q Q Q Q
 
 |----------|----------|----------|------------|
 |-1--1--1--|-1--1--1--|-1--1--1--|------------|
 |----------|----------|----------|-1--1--1----|
 |----------|----------|----------|------------|

Q Q Q Q Q Q Q Q Q Q Q Q
 
 |----------|----------|----------|----------|
 |----------|----------|----------|----------|
 |-1--1--1--|-1--1--1--|-1--1--1--|-1--1--1--|
 |----------|----------|----------|----------|

Q Q Q Q Q Q Q Q Q Q Q Q
 
 |----------|----------|----------|------------|
 |-1--1--1--|-1--1--1--|-1--1--1--|-1--1--1----|
 |----------|----------|----------|------------|
 |----------|----------|----------|------------|

Q Q Q Q Q Q Q Q Q Q Q Q
 
 |----------|----------|----------|----------|
 |----------|----------|----------|----------|
 |-1--1--1--|-1--1--1--|-1--1--1--|-1--1--1--|
 |----------|----------|----------|----------|

Q Q Q Q Q Q Q Q Q Q Q Q
 
 |----------|----------|----------|------------|
 |-1--1--1--|-1--1--1--|-1--1--1--|-1--1--1----|
 |----------|----------|----------|------------|
 |----------|----------|----------|------------|

Q Q Q Q Q Q Q Q Q Q Q Q
 
 |----------|----------|----------|----------|
 |----------|----------|----------|----------|
 |-1--1--1--|-1--1--1--|-1--1--1--|-1--1--1--|
 |----------|----------|----------|----------|

Q Q Q Q Q Q Q Q Q Q Q Q
 
 |----------|----------|----------|------------|
 |-1--1--1--|-1--1--1--|-1--1--1--|-1--1--1----|
 |----------|----------|----------|------------|
 |----------|----------|----------|------------|

[E] [E] [E] [E] [E] [E] [E] [E] [E] [E] [E] [E] [E] [E] [E] [E] [E] [E] [E] [E] [E] [E] [E] [E]  
 
 |-------------|-------------|-------------|-------------|
 |-------------|-------------|-------------|-------------|
 |-------------|-------------|-------------|-------------|
 |-6---6-6-6-6-|-6---6-6-6-6-|-6---6-6-6-6-|-6---6-6-6-6-|

[E] [E] [E] [E] [E] [E] [E] [E] [E] [E] [E] [E] [E] [E] [E] [E] [E] [E] [E] [E] [E] [E] [E] [E]  
 
 |-------------|-------------|-------------|-------------|
 |-------------|-------------|-------------|-------------|
 |-------------|-------------|-------------|-------------|
 |-1---1-1-1-1-|-1---1-1-1-1-|-1---1-1-1-1-|-1---1-1-1-1-|

[E] [E] [E] [E] [E] [E] [E] [E] [E] [E] [E] [E] [E] [E] [E] [E] [E] [E] [E] [E] [E] [E] [E] [E]  
 
 |-------------|-------------|-------------|-------------|
 |-------------|-------------|-------------|-------------|
 |-------------|-------------|-------------|-------------|
 |-5---5-5-5-5-|-5---5-5-5-5-|-5---5-5-5-5-|-5---5-5-5-5-|

[E] [E] [E] [E] [E] [E] [E] [E] [E] [E] [E] [E] [E] [E] [E] [E] [E] [E] [E] [E] [E] [E] [E] [E]  
 
 |-------------|-------------|-------------|-------------|
 |-------------|-------------|-------------|-------------|
 |-------------|-------------|-------------|-------------|
 |-1---1-1-1-1-|-1---1-1-1-1-|-1---1-1-1-1-|-1---1-1-1-1-|

[E] [E] [E] [E] [E] [E] [E] [E] [E] [E] [E] [E] [E] [E] [E] [E] [E] [E] [E] [E] [E] [E] [E] [E]  
 
 |-------------|-------------|-------------|-------------|
 |-------------|-------------|-------------|-------------|
 |-------------|-------------|-------------|-------------|
 |-6---6-6-6-6-|-6---6-6-6-6-|-6---6-6-6-6-|-6---6-6-6-6-|

[E] [E] [E] [E] [E] [E] [E] [E] [E] [E] [E] [E] [E] [E] [E] [E] [E] [E] [E] [E] [E] [E] [E] [E]  
 
 |-------------|-------------|-------------|-------------|
 |-------------|-------------|-------------|-------------|
 |-------------|-------------|-------------|-------------|
 |-6---6-6-6-6-|-6---6-6-6-6-|-6---6-6-6-6-|-6---6-6-6-6-|

[E] [E] [E] [E] [E] [E] [E] [E] [E] [E] [E] [E] [E] [E] [E] [E] [E] [E] [E] [E] [E] [E] [E] [E]  
 
 |-------------|-------------|-------------|-------------|
 |-------------|-------------|-------------|-------------|
 |-------------|-------------|-------------|-------------|
 |-1---1-1-1-1-|-1---1-1-1-1-|-1---1-1-1-1-|-1---1-1-1-1-|

[E] [E] [E] [E] [E] [E] [E] [E] [E] [E] [E] [E] [E] [E] [E] [E] [E] [E] [E] [E] [E] [E] [E] [E]  
 
 |-------------|-------------|-------------|-------------|
 |-------------|-------------|-------------|-------------|
 |-------------|-------------|-------------|-------------|
 |-1---1-1-1-1-|-1---1-1-1-1-|-1---1-1-1-1-|-1---1-1-1-1-|

[E] [E] [E] [E] [E] [E] [E] [E] [E] [E] [E] [E] [E] [E] [E] [E] [E] [E] [E] [E] [E] [E] [E] [E]  
 
 |-------------|-------------|-------------|-------------|
 |-------------|-------------|-------------|-------------|
 |-------------|-------------|-------------|-------------|
 |-1---1-1-1-1-|-1---1-1-1-1-|-1---1-1-1-1-|-1---1-1-1-1-|

[E] [E] [E] [E] [E] [E] [E] [E] [E] [E] [E] [E] [E] [E] [E] [E] [E] [E] [E] [E] [E] [E] [E] [E]  
 
 |-------------|-------------|-------------|-------------|
 |-------------|-------------|-------------|-------------|
 |-------------|-------------|-------------|-------------|
 |-1---1-1-1-1-|-1---1-1-1-1-|-1---1-1-1-1-|-1---1-1-1-1-|

[E] [E] [E] [E] [E] [E] [E] [E] [E] [E] [E] [E] [E] [E] [E] [E] [E] [E] [E] [E] [E] [E] [E] [E]  
 
 |-------------|-------------|-------------|-------------|
 |-------------|-------------|-------------|-------------|
 |-------------|-------------|-------------|-------------|
 |-1---1-1-1-1-|-1---1-1-1-1-|-1---1-1-1-1-|-1---1-1-1-1-|

[E] [E] [E] [E] [E] [E] [E] [E] [E] [E] [E] [E] [E] [E] [E] [E] [E] [E] [E] [E] [E] [E] [E] [E]  
 
 |-------------|-------------|-------------|-------------|
 |-------------|-------------|-------------|-------------|
 |-------------|-------------|-------------|-------------|
 |-0---0-0-0-0-|-0---0-0-0-0-|-0---0-0-0-0-|-0---0-0-0-0-|

[E] [E] [E] [E] [E] [E] [E] [E] [E] [E] [E] [E] [E] [E] [E] [E] [E] [E] [E] [E] [E] [E] [E] [E]  
 
 |-------------|-------------|-------------|-------------|
 |-------------|-------------|-------------|-------------|
 |-------------|-------------|-------------|-------------|
 |-1---1-1-1-1-|-1---1-1-1-1-|-1---1-1-1-1-|-1---1-1-1-1-|

[E] [E] [E] [E] [E] [E] [E] [E] [E] [E] [E] [E] [E] [E] [E] [E] [E] [E] [E] [E] [E] [E] [E] [E]  
 
 |-------------|-------------|-------------|-------------|
 |-------------|-------------|-------------|-------------|
 |-------------|-------------|-------------|-------------|
 |-1---1-1-1-1-|-1---1-1-1-1-|-1---1-1-1-1-|-1---1-1-1-1-|

[E] [E] [E] [E] [E] [E] [E] [E] [E] [E] [E] [E] [E] [E] [E] [E] [E] [E] [E] [E] [E] [E] [E] [E]  
 
 |-------------|-------------|-------------|-------------|
 |-------------|-------------|-------------|-------------|
 |-------------|-3---3-3-3-3-|-------------|-------------|
 |-0---0-0-0-0-|-------------|-1---1-1-1-1-|-5---5-5-5-5-|

[E] [E] [E] [E] [E] [E] [E] [E] [E] [E] [E] [E] [E] [E] [E] [E] [E] [E] [E] [E] [E] [E] [E] [E]  
 
 |-------------|-------------|-------------|-------------|
 |-------------|-------------|-------------|-------------|
 |-3---3-3-3-3-|-------------|-------------|-------------|
 |-------------|-1---1-1-1-1-|-3---3-3-3-3-|-5---5-5-5-5-|

[E] [E] [E] [E] [E] [E] [E] [E] [E] [E] [E] [E] [E] [E] [E] [E] [E] [E] [E] [E] [E] [E] [E] [E]  
 
 |-------------|-------------|-------------|-------------|
 |-------------|-------------|-------------|-------------|
 |-------------|-------------|-------------|-------------|
 |-6-6-6-6-6-6-|-6-6-6-6-6-6-|-6-6-6-6-6-6-|-6-6-6-6-6-6-|

[E] [E] [E] [E] [E] [E] [E] [E] [E] [E] [E] [E] [E] [E] [E] [E] [E] [E] [E] [E] [E] [E] [E] [E]  
 
 |-------------|-------------|-------------|-------------|
 |-------------|-------------|-------------|-------------|
 |-------------|-------------|-------------|-------------|
 |-5-5-5-5-5-5-|-5-5-5-5-5-5-|-5-5-5-5-5-5-|-5-5-5-5-5-5-|

[E] [E] [E] [E] [E] [E] [E] [E] [E] [E] [E] [E] [E] [E] [E] [E] [E] [E] [E] [E] [E] [E] [E] [E]  
 
 |-------------|-------------|-------------|-------------|
 |-------------|-------------|-------------|-------------|
 |-------------|-------------|-------------|-------------|
 |-5-5-5-5-5-5-|-5-5-5-5-5-5-|-5-5-5-5-5-5-|-5-5-5-5-5-5-|

[E] [E] [E] [E] [E] [E] [E] [E] [E] [E] [E] [E] [E] [E] [E] [E] [E] [E] [E] [E] [E] [E] [E] [E]  
 
 |-------------|-------------|-------------|-------------|
 |-------------|-------------|-------------|-------------|
 |-------------|-------------|-------------|-------------|
 |-5-5-5-5-5-5-|-5-5-5-5-5-5-|-5-5-5-5-5-5-|-5-5-5-5-5-5-|

[E] [E] [E] [E] [E] [E] [E] [E] [E] [E] [E] [E] [E] [E] [E] [E] [E] [E] [E] [E] [E] [E] [E] [E]  
 
 |-------------|-------------|-------------|-------------|
 |-------------|-------------|-------------|-------------|
 |-------------|-------------|-------------|-------------|
 |-4-4-4-4-4-4-|-4-4-4-4-4-4-|-4-4-4-4-4-4-|-4-4-4-4-4-4-|

[E] [E] [E] [E] [E] [E] [E] [E] [E] [E] [E] [E] [E] [E] [E] [E] [E] [E] [E] [E] [E] [E] [E] [E]  
 
 |-------------|-------------|-------------|-------------|
 |-------------|-------------|-------------|-------------|
 |-------------|-------------|-------------|-------------|
 |-4-4-4-4-4-4-|-4-4-4-4-4-4-|-4-4-4-4-4-4-|-4-4-4-4-4-4-|

H. +H. +H. +H.
 
 |---------|----------|----------|----------|
 |-0-------|-(0)------|-(0)------|-(0)------|
 |---------|----------|----------|----------|
 |---------|----------|----------|----------|

H. +H. +H. +H.
 
 |---------|----------|----------|--------|
 |-1-------|-(1)------|-(1)------|-(1)----|
 |---------|----------|----------|--------|
 |---------|----------|----------|--------|

H. +H. +H. +H.
 
 |---------|----------|----------|----------|
 |-2-------|-(2)------|-(2)------|-(2)------|
 |---------|----------|----------|----------|
 |---------|----------|----------|----------|

H. +H. +H. +H.
 
 |---------|----------|----------|--------|
 |-2-------|-(2)------|-(2)------|-(2)----|
 |---------|----------|----------|--------|
 |---------|----------|----------|--------|

H. +H. +H. +H.
 
 |---------|----------|----------|----------|
 |---------|----------|----------|----------|
 |-3-------|-(3)------|-(3)------|-(3)------|
 |---------|----------|----------|----------|

H. +H. +H. +H.
 
 |---------|----------|----------|--------|
 |---------|----------|----------|--------|
 |-2-------|-(2)------|-(2)------|-(2)----|
 |---------|----------|----------|--------|

H. +H. +H. +H.
 
 |---------|----------|----------|----------|
 |---------|----------|----------|----------|
 |-0-------|-(0)------|-(0)------|-(0)------|
 |---------|----------|----------|----------|

H. +H. +H. +H.
 
 |---------|----------|----------|--------*|
 |---------|----------|----------|--------*|
 |---------|----------|----------|--------*|
 |-5-------|-(5)------|-(5)------|-(5)----*|

Duration Legend
 
 ---------------
 W - whole; H - half; Q - quarter; E - 8th; S - 16th; T - 32nd; X - 64th; a - acciaccatura

+ - note tied to previous; . - note dotted; .. - note double dotted
Uncapitalized letters represent notes that are staccato (1/2 duration)
Irregular groupings are notated above the duration line
Duration letters will always appear directly above the note/fret number it represents the
duration for. Duration letters with no fret number below them represent rests. Multi-
bar rests are notated in the form Wxn, where n is the number of bars to rest for. Low
melody durations appear below the staff
Tablature Legend
 
 ----------------

h - hammer-on
p - pull-off
b - bend
pb - pre-bend
r - bend release (if no number after the r, then release immediately)
/\ - slide into or out of (from/to "nowhere")
s - legato slide
S - shift slide
- natural harmonic
(n) - artificial harmonic
n(n) - tapped harmonic
~ - vibrato
tr - trill
T - tap
TP - trem. picking
PM - palm muting
\n/ - tremolo bar dip; n = amount to dip
\n - tremolo bar down
n/ - tremolo bar up
/n\ - tremolo bar inverted dip
= - hold bend; also acts as connecting device for hammers/pulls
- volume swell (louder/softer)
x - on rhythm slash represents muted slash
o - on rhythm slash represents single note slash
Misc Legend
 
 -----------

| - bar
|| - double bar
||o - repeat start
o|| - repeat end
*| - double bar (ending)
: - bar (freetime)
$ - Segno
& - Coda
Tempo markers - = BPM(8/16=s8/s16), where s8 = swing 8ths, s16 = swing 16ths

Important: The song above is NOT stored on the Chordie server. The original song is hosted at www.guitartabs.cc. Chordie works as a search engine and provides on-the-fly formatting. Chordie does not index songs against artists'/composers' will. To remove this song please click here.

Text color:
Chord color:
Chord grids: 
Font size:    
Page size: 

E
Rate #1 of 1 versions

Login - add to songbook

SHARE PAGE  



You need to log in to post comments