Guitar Tabs, Chords and Lyrics
Major upgrade!! After one year development the new version of Chordie is now online! Please give feedback.


Panic Station   Muse

 
 [ G|---------------7/9------------19191919| ]
 [ D|---------------7/9------------19191919| ] x2 (2nd time without slide
 [ A|------------------------------17171717| ] at beginning)
 [ E|--12\-0--0--0-------0-0-0-0-----------| ]

 


 


 Verse 1


 


 

 
 G|--------------7/9-------------19191919-------------7/9-----------19191919|
 D|--------------7/9-------------19191919-------------7/9-----------19191919|
 A|------------------------------17171717---------------------------17171717|
 E|--0--0--0-----------0-0-0-0------------0--0--0-----------0-0-0-0---------|
 G|--------------13\12-----------19191919-------------7/9-----------19\-----|
 D|--------------13\12-----------19191919-------------7/9-----------19\-----|
 A|--0--0--0---------------------17171717---------------------------17\-----|
 E|--------------------3-3-3-3------------0--0--0-----------0-0-0-0---------|

 


 


 Chorus 1


 


 I'm pretty sure he just finger picks the octaves, but slapping sounds


 just as good and it's much more fun, in a personal view


 


 

 
 G|-----------------------------------2---2---2---4---5---5---7---8---------|
 D|---2---2---2---4---5---5---5---6-----------------------------------2---2-|
 A|---------------------------------0---0---0---2---3---3---5---6-----------|
 E|-0---0---0---2---3---3---3---4-----------------------------------0---0---|
 G|---------------------------2---2---2---4---|
 D|---2---4---5---5---5---6-------------------|
 A|-------------------------0---0---0---2---3~|
 E|-0---2---3---3---3---4---------------------|

 


 


 Verse 2


 


 

 
 [ G|---------------7/9------------19191919| ]
 [ D|---------------7/9------------19191919| ] x2 (2nd time without slide
 [ A|------------------------------17171717| ] at beginning)
 [ E|--12\-0--0--0-------0-0-0-0-----------| ]
 G|--------------7/9-------------19191919-------------7/9-----------19191919|
 D|--------------7/9-------------19191919-------------7/9-----------19191919|
 A|------------------------------17171717---------------------------17171717|
 E|-----0--0--0---------0-0-0-0-----------0--0--0--0-------0-0-0-0----------|

 


 [ Tab from: bttp://www.guitartabs.cc/tabs/m/muse/panic_station_btab_ver_5.btml ] 


 

 
 G|--------------13\12-----------19191919-------------7/9-----------19\-----|
 D|--------------13\12-----------19191919-------------7/9-----------19\-----|
 A|--0--0--0---------------------17171717---------------------------17\-----|
 E|--------------------3-3-3-3------------0--0--0-----------0-0-0-0---------|

 


 


 Chorus 2


 


 

 
 G|-----------------------------------2---2---2---4---5---5---7---8---------|
 D|---2---2---2---4---5---5---5---6-----------------------------------2---2-|
 A|---------------------------------0---0---0---2---3---3---5---6-----------|
 E|-0---0---0---2---3---3---3---4-----------------------------------0---0---|
 G|---------------------------2---2---2---4---|
 D|---2---4---5---5---5---6-------------------|
 A|-------------------------0---0---0---2---3~|
 E|-0---2---3---3---3---4---------------------|

 


 


 Guitar solo


 


 

 
 G|--------------7/9-------------19191919-------------7/9-----------19191919|
 D|--------------7/9-------------19191919-------------7/9-----------19191919|
 A|------------------------------17171717---------------------------17171717|
 E|-12\-0--0--0---------0-0-0-0-----------0--0--0----------0-0-0-0----------|
 G|--------------13\12-----------19191919-------------7/9-----------19\-----|
 D|--------------13\12-----------19191919-------------7/9-----------19\-----|
 A|--0--0--0---------------------17171717---------------------------17\-----|
 E|--------------------3-3-3-3------------0--0--0-----------0-0-0-0---------|
 [ G|-----------------------------------2---2---2---4---5---5---7---8-| ]
 [ D|---2---2---2---4---5---5---5---6---------------------------------| ] x2
 [ A|---------------------------------0---0---0---2---3---3---5---6---| ]
 [ E|-0---0---0---2---3---3---3---4-----------------------------------| ]

 


 


 Chorus 3


 


 

 
 [ G|-----------------------------------2---2---2---4---5---5---7---8-| ]
 [ D|---2---2---2---4---5---5---5---6---------------------------------| ] x2
 [ A|---------------------------------0---0---0---2---3---3---5---6---| ]
 [ E|-0---0---0---2---3---3---3---4-----------------------------------| ]
 G|-----------------------------------2---2---2---4---5---5---7---8---------|
 D|---2---2---2---4---5---5---5---6-----------------------------------2---2-|
 A|---------------------------------0---0---0---2---3---3---5---6-----------|
 E|-0---0---0---2---3---3---3---4-----------------------------------0---0---|
 G|---------------------------2---2---2---4---|
 D|---2---4---5---5---5---6-------------------|
 A|-------------------------0---0---0---2---3~|
 E|-0---2---3---3---3---4---------------------|

 


 


 Outro


 


 

 
 [ G|---------------7/9------------19191919| ]
 [ D|---------------7/9------------19191919| ] x2 (2nd time without slide
 [ A|------------------------------17171717| ] at beginning)
 [ E|--12\-0--0--0-------0-0-0-0-----------| ]


Important: The song above is NOT stored on the Chordie server. The original song is hosted at www.guitartabs.cc. Chordie works as a search engine and provides on-the-fly formatting. Chordie does not index songs against artists'/composers' will. To remove this song please click here.

This song is displayed as text-only. Transposing and tuning is only available for chordpro-songs.
Rate #1 of 5 versions

Jango Player

Login - add to songbook

SHARE PAGE  



You need to log in to post comments