Guitar Tabs, Chords and Lyrics
Major upgrade!! After one year development the new version of Chordie is now online! Please give feedback.


Stockholm Syndrome   Muse

 
 e-----------------------|-----------------------|-----------------------|-----------------------|
 B-----------------------|-----------------------|-----------------------|-----------------------|
 G-----------------------|-----------------------|-----------------------|-----------------------|
 D-----------------------|-----------------------|-----------------------|-----------------------|
 A-----------------------|-----------------------|-----------------------|-----------------------|
 D-12-0-13-0-12-0-10h12--|-0-0-13-0-12-0-10h12---|-0-0-13-0-12-0-10h12---|-0-0-13-0-16h17p16-0---|
 e-----------------------|-----------------------|---------------------------|-----------------------|
 B-----------------------|-----------------------|---------------------------|-----------------------|
 G-----------------------|-----------------------|---------------------------|-----------------------|
 D-----------------------|-----------------------|---------------------------|-----------------------|
 A-----------------------|-----------------------|---------------------------|-----------------------|
 D-12-0-13-0-12-0-10h12--|-0-0-13-0-12-0-10h12---|--0-0-[10-10-10-10-10]--0--|-[10-10-10]0[10-10-10]-| but you

 


 probably knew that)


 


 

 
 e-----------------------|-----------------------|-----------------------|-----------------------|
 B-----------------------|-----------------------|-----------------------|-----------------------|
 G-----------------------|-----------------------|-----------------------|-----------------------|
 D--3-(x8)---------------|--3-(x8)---------------|--2-(x8)---------------|--2-(x8)---------------|
 A--3--------------------|--3--------------------|--2--------------------|--2--------------------|
 D--3--------------------|--3--------------------|--2--------------------|--2--------------------|
 e-----------------------|-----------------------|-----------------------|-----------------------|
 B-----------------------|-----------------------|-----------------------|-----------------------|
 G-----------------------|-----------------------|-----------------------|-----------------------|
 D--0-(x8)---------------|--0-(x8)---------------|--0-(x8)---------------|--0-(x8)---------------|
 A--0--------------------|--0--------------------|--0--------------------|--0--------------------|
 D--0--------------------|--0--------------------|--0--------------------|--0--------------------|
 e-----------------------|-----------------------|-----------------------|-----------------------|
 B-----------------------|-----------------------|-----------------------|-----------------------|
 G-----------------------|-----------------------|-----------------------|-----------------------|
 D--3-(x8)---------------|--3-(x8)---------------|--2-(x8)---------------|--2-(x8)---------------|
 A--3--------------------|--3--------------------|--2--------------------|--2--------------------|
 D--3--------------------|--3--------------------|--2--------------------|--2--------------------|
 e-----------------------|-----------------------|-----------------------|-----------------------|
 B-----------------------|-----------------------|-----------------------|-----------------------|
 G-----------------------|-----------------------|-----------------------|-----------------------|
 D--0-(x8)---------------|--0-(x8)---------------|--8-(x8)---------------|--8-(x8)---------------|
 A--0--------------------|--0--------------------|--8--------------------|--8--------------------|
 D--0--------------------|--0--------------------|--8--------------------|--8--------------------|

 


 


 !Heavy!


 


 

 
 e-----------------------|-----------------------|
 B-----------------------|-----------------------|
 G-----------------------|-----------------------|
 D--3-(x8)----6-(x8)-----|--7-(x8)-10-(x4)-11-12-|
 A--3---------6----------|--7------10------11-12-|
 D--3---------6----------|--7------10------11-12-|
 e-----------------------|-----------------------|----------------------------|--------------|
 B-----------------------|-----------------------|----------------------------|--------------|
 G-----------------------|-----------------------|----------------------------|--------------|
 D-----------------------|-----------------------|----------------------------|--------------|
 A-----------------------|-----------------------|----------------------------|--------------|
 D-12-0-13-0-12-0-10h12--|-0-0-13-0-12-0-10h12-0-|-0-[10]-0-[10]-0-[10]-0-[10]|-0-0-[10]-----| --------------|
 D-- 0 --> --------------|


Important: The song above is NOT stored on the Chordie server. The original song is hosted at www.guitartabs.cc. Chordie works as a search engine and provides on-the-fly formatting. Chordie does not index songs against artists'/composers' will. To remove this song please click here.

This song is displayed as text-only. Transposing and tuning is only available for chordpro-songs.
Rate #1 of 3 versions

Login - add to songbook

SHARE PAGE  




You need to log in to post comments