Guitar Tabs, Chords and Lyrics
Major upgrade!! After one year development the new version of Chordie is now online! Please give feedback.


Survival   Muse

 
 Gb|-------------------------------------------------------------------------|
 Db|-------------------------------------------------------------------------|
 Ab|--------------------------7----7----10---10------------------------------|
 Eb|4455667----7----7----7-------------------------8----8-0011223----3-445566|

 


 


 Verse: [0:35]


 


 

 
 Gb|-------------------|-------------------| |
 Db|-------------------|-------------------| |
 Ab|-------------------|-------------------| |
 Eb|7--77--7-7--77--7--|7--77--7-7--77--7--| |

 


 |


 

 
 Gb|-------------------|---------------------------| |
 Db|-------------------|---------------------------| |
 Ab|7--77--7-7--77--7--|10--1010--10-10--1010--10--| | x3
 Eb|-------------------|---------------------------| |

 


 |


 

 
 Gb|-------------------|------------------| |
 Db|-------------------|------------------| |
 Ab|-------------------|------------------| |
 Eb|8--88--8-8--001122-|3--33--3-3--445566| |

 


 Yes, I'm gonna win: [1:27]


 


 

 
 Gb|--------------------------| |----------------------|
 Db|---9---9--------9---9-----| |---9---9--------------|
 Ab|--------------------------| |----------------445566|
 Eb|7----7----7--7----7----7--| x10 |7----7----7--7--------|
 Gb|--------------------------| |----------------------|
 Db|---2---2--------2---2-----| |---2---2--------------|
 Ab|--------------------------| |----------------------|
 Eb|0----0----0--0----0----0--| x4 |0----0----0--0--223344|

 


 [ Tab from: bttp://www.guitartabs.cc/tabs/m/muse/survival_btab_ver_5.btml ] 


 

 
 Gb|--------------------------| |----------------------|
 Db|---7---7--------7---7-----| |---7---7--------------|
 Ab|--------------------------| |----------------------|
 Eb|5----5----5--5----5----5--| |5----5----5--5--223344|

 


 


 Race...it's a race: [2:20]


 


 

 
 Gb|--------------------------| |---7---7--------7---7-----| |
 Db|---7---7--------7---7-----| |--------------------------| |
 Ab|--------------------------| |5----5----5--5----5----5--| |
 Eb|5----5----5--5----5----5--| x2 |--------------------------| |

 


 |


 

 
 Gb|--10---10------10---10----| |----------------------| |
 Db|--------------------------| |---8---8--------------| |
 Ab|8----8----8--8----8----8--| |----------------556677| | x3
 Eb|--------------------------| |6----6----6--6--------| |

 


 |


 

 
 Gb|--10---10-------------| |
 Db|----------------------| |
 Ab|8----8----8--8--------| |
 Eb|----------------223344| |

 


 


 Yes, I'm gonna win: [2:55]


 


 

 
 Gb|--------------------------|----------------------|
 Db|---7---7--------7---7-----|---7---7--------------|
 Ab|--------------------------|----------------------|
 Eb|5----5----5--5----5----5--|5----5----5--5--223344| x10

 


 


 Ending: [3:54]


 


 

 
 Gb|----------------------------------------------------|
 Db|7------------7------------7------------7------------|
 Ab|----------------------------------------------------|
 Eb|---5-5-5--5-----5-5-5--5-----5-5-5--5-----5-5-5--5--|
 Gb|----------------------------------------------------|
 Db|----------------------------------------------------|
 Ab|----------------------------------------------------|
 Eb|---5-5-5--5-----5-5-5--5-----5-5-5--5-----5-5-5--5--|


Important: The song above is NOT stored on the Chordie server. The original song is hosted at www.guitartabs.cc. Chordie works as a search engine and provides on-the-fly formatting. Chordie does not index songs against artists'/composers' will. To remove this song please click here.

This song is displayed as text-only. Transposing and tuning is only available for chordpro-songs.
Rate #1 of 7 versions

Jango Player

Login - add to songbook

SHARE PAGE  



You need to log in to post comments