Guitar Tabs, Chords and Lyrics
Major upgrade!! After one year development the new version of Chordie is now online! Please give feedback.


Take a Bow   Muse

 
 |--------------------|--------------------|--------------------|--------------------|
 |--------------------|--------------------|--------------------|--------------------|
 |-----8-----8-----8--|--------------------|--------------------|--------------------|
 |--------------------|-----9-----9-----9--|-----8-----8-----8--|-----8-----8-----8--|
 |--6-----6-----6-----|--------------------|--------------------|--------------------|
 |--------------------|--7-----7-----7-----|--6-----6-----6-----|--6-----6-----6-----|

 


 |__| |__| |__| |__| |__| |__| |__| |__| |__| |__| |__| |__|


 


 [77]  

 
 |--------------------|--------------------|--------------------|--------------------|
 |--------------------|--------------------|--------------------|--------------------|
 |-----8-----8-----8--|--------------------|--------------------|--------------------|
 |--------------------|-----9-----9-----9--|-----6-----6-----6--|-----6-----6-----6--|
 |--6-----6-----6-----|--------------------|--------------------|--------------------|
 |--------------------|--7-----7-----7-----|--4-----4-----4-----|--4-----4-----4-----|

 


 |__| |__| |__| |__| |__| |__| |__| |__| |__| |__| |__| |__|


 


 81


 

 
 |--------------------|--------------------|--------------------|--------------------|
 |--------------------|--------------------|--------------------|--------------------|
 |-----3-----3-----3--|--------------------|--------------------|--------------------|
 |--------------------|-----4-----4-----4--|-----3-----3-----3--|-----3-----3-----3--|
 |--1-----1-----1-----|--------------------|--------------------|--------------------|
 |--------------------|--2-----2-----2-----|--1-----1-----1-----|--1-----1-----1-----|

 


 |__| |__| |__| |__| |__| |__| |__| |__| |__| |__| |__| |__|


 


 


 85


 

 
 |--------------------|--------------------|--------------------|--------------------|
 |--------------------|--------------------|--------------------|--------------------|
 |-----3-----3-----3--|--------------------|-----8-----8-----8--|-----8-----8-----8--|
 |--------------------|-----4-----4-----4--|--------------------|--------------------|
 |--1-----1-----1-----|--------------------|--6-----6-----6-----|--6-----6-----6-----|
 |--------------------|--2-----2-----2-----|--------------------|--------------------|

 


 |__| |__| |__| |__| |__| |__| |__| |__| |__| |__| |__| |__|


 


 89


 

 
 |--------------------|--------------------|--------------------|--------------------|
 |--------------------|--------------------|--------------------|--------------------|
 |--------------------|--------------------|-----5-----5-----5--|----10----10----10--|
 |-----3-----3-----3--|-----7-----7-----7--|--------------------|--------------------|
 |--------------------|--------------------|--3-----3-----3-----|--8-----8-----8-----|
 |--1-----1-----1-----|--5-----5-----5-----|--------------------|--------------------|

 


 |__| |__| |__| |__| |__| |__| |__| |__| |__| |__| |__| |__|


 


 [93]  

 
 |--------------------|--------------------|----13----13----13--|----17----17----17--||
 |----10----10----10--|----13----13----13--|--------------------|--------------------||
 |--------------------|--------------------|-10----10----10-----|-10----10----10-----||
 |--7-----7-----7-----|-10----10----10-----|--------------------|--------------------||
 |--------------------|--------------------|--------------------|--------------------||
 |--------------------|--------------------|--------------------|--------------------||

 


 |__| |__| |__| |__| |__| |__| |__| |__| |__| |__| |__| |__|


 


 [97]  

 
 |--------------------|--------------------|--------------------|--------------------|
 |--------------------|--------------------|--------------------|--------------------|
 |----10----10----10--|--------------------|----10----10----10--|--------------------|
 |--------------------|-----9-----9-----9--|--------------------|-----9-----9-----9--|
 |--8-----8-----8-----|--------------------|--8-----8-----8-----|--------------------|
 |--------------------|--7-----7-----7-----|--------------------|--7-----7-----7-----|

 


 |__| |__| |__| |__| |__| |__| |__| |__| |__| |__| |__| |__|


 


 101


 

 
 |--------------------|--------------------|--------------------|--------------------|
 |--------------------|--------------------|--------------------|--------------------|
 |----10----10----10--|--------------------|----10----10----10--|----10----10----10--|
 |--------------------|-----9-----9-----9--|--------------------|--------------------|
 |--8-----8-----8-----|--------------------|--8-----8-----8-----|--8-----8-----8-----|
 |--------------------|--7-----7-----7-----|--------------------|--------------------|

 


 |__| |__| |__| |__| |__| |__| |__| |__| |__| |__| |__| |__|


 


 105


 

 
 |--------------------|--------------------|--------------------|--------------------|
 |--------------------|--------------------|--------------------|--------------------|
 |----10----10----10--|--------------------|----10----10----10--|--------------------|
 |--------------------|-----9-----9-----9--|--------------------|-----9-----9-----9--|
 |--8-----8-----8-----|--------------------|--8-----8-----8-----|--------------------|
 |--------------------|--7-----7-----7-----|--------------------|--7-----7-----7-----|

 


 |__| |__| |__| |__| |__| |__| |__| |__| |__| |__| |__| |__|


 


 109


 

 
 |--------------------|--------------------|--------------------|--------------------||
 |--------------------|--------------------|--------------------|--------------------||
 |----10----10----10--|--------------------|----10----10----10--|--------------------||
 |--------------------|-----9-----9-----9--|--------------------|-----9-----9-----9--||
 |--8-----8-----8-----|--------------------|--8-----8-----8-----|--------------------||
 |--------------------|--7-----7-----7-----|--------------------|--7-----7-----7-----||

 


 |__| |__| |__| |__| |__| |__| |__| |__| |__| |__| |__| |__|


 


 


 Electric Bass part:


 


 [113]  

 
 |--------------------|--------------------|--------------------|--------------------|
 |--------------------|--------------------|--------------------|--------------------|
 |--1-----------------|--------------------|--1-----------------|--------------------|
 |--------------------|--2-----------------|--------------------|--2-----------------|

 


 |· |· |· |·


 ( Tab from: http://www.guitartabs.cc/tabs/m/muse/take_a_bow_tab_ver_3.html )


 [117]  

 
 |--------------------|--------------------|--------------------|--------------------|
 |--------------------|--------------------|--------------------|--------------------|
 |--1-----------------|--------------------|--1-----------------|--------------------|
 |--------------------|--2-----------------|--------------------|--2/----------------|

 


 |· |· |· |·


 


 [121]  

 
 |--------------------|--------------------|--------------------|--------------------|
 |--------------------|--------------------|--------------------|--------------------|
 |--6-----------------|--------------------|--6-----------------|--------------------|
 |--------------------|--7-----------------|--------------------|--7-----------------|

 


 |· |· |· |·


 


 [125]  

 
 |--------------------|--------------------|--------------------|--------------------|
 |--------------------|--------------------|--------------------|--------------------|
 |--6-----------------|--------------------|--6-----------------|--------------------|
 |--------------------|--7-----------------|--------------------|--7-----------------|

 


 |· |· |· |·


 


 [129]  

 
 |--------------------|--------------------|--------------------|--------------------|
 |--------------------|--------------------|--------------------|--------------------|
 |--------------------|--------------------|--------------------|--------------------|
 |--4-\---------------|--0-----------------|--4-\---------------|--0-----------------|

 


 |· |· |· |·


 


 [133]  

 
 |--------------------|--------------------|--------------------|--------------------||
 |--------------------|--------------------|--------------------|--------------------||
 |--------------------|--7-----------------|--------------------|--------------------||
 |--4-----------------|--------------------|--4-----------------|-(4)----------------||

 


 |· |· |· |·


 


 [137]  

 
 |--------------------|--------------------|--------------------|--------------------|
 |--------------------|--------------------|--------------------|--------------------|
 |-------6/11--(11)---|-----------7--(7)---|-------6/11--(11)---|-----------7--(7)---|
 |---4----------------|---0—-(0)-----------|---4----------------|---0—-(0)-----------|

 


 | |__| | | |___| | | |__| | | |___| |


 


 [141]  

 
 |--------------------|--------------------|--------------------|--------------------|
 |--------------------|--------------------|--------------------|--------------------|
 |-------6/11--(11)---|-----------7--(7)---|-------6/11--(11)---|--------------------|
 |---4----------------|---0—-(0)-----------|---4----------------|---0—---0-----------|

 


 | |__| | | |___| | | |__| | | | |


 


 [145]  

 
 |--------------------|--------------------|--------------------|--------------------|
 |----------11---(11)-|--------7-\---------|----------11---(11)-|--------7-\---------|
 |---4-/-8------------|---0-/--------------|---4-/-8------------|---0-/--------------|
 |--------------------|----—---------------|--------------------|--------------------|

 


 | |___| | | | | |___| | | |


 


 


 [149]  

 
 |--------------------|--------------------|--------------------|--------------------|
 |----------11---(11)-|--------7-\---------|----------11---(11)-|--------7-\---------|
 |---4-/-8------------|---0-/--------------|---4-/-8------------|---0-/--------------|
 |--------------------|----—---------------|--------------------|--------------------|

 


 | |___| | | | | |___| | | |


 


 [153]  

 
 |--------------------|--------------------|--------------------|--------------------|
 |--------------------|--------12-\--------|--------------------|--------12-\--------|
 |----------9---(9)-\-|---5-/--------------|----------9---(9)-\-|---5-/--------------|
 |---2-/-9------------|--------------------|---2-/-9------------|--------------------|

 


 | |__| | | | | |__| | | |___| |


 


 [157]  

 
 |--------------------|--------------------|--------------------|--------------------|
 |--------------------|--------12-\--------|--------------------|--------12-\--------|
 |----------9---(9)-\-|---5-/--------------|----------9---(9)-\-|---5-/--------------|
 |---2-/-9------------|--------------------|---2-/-9------------|--------------------|

 


 | |__| | | | | |__| | | |___| |


 


 [161]  

 
 |--------------------|--------------------|--------------------|--------------------|
 |----------9-(9)-----|--------------------|----------9-(9)-----|--------------------|
 |--2-/-9-------------|-------10-----------|--2-/-9-------------|-------10-----------|
 |-----------------0--|---3—/-----------0--|-----------------0--|---3—/-----------0--|

 


 | |___| |___| | |· |_ | |___| |___| | |· |_


 


 [165]  

 
 |--------------------|--------------------|--------------------|--------------------|
 |----------9-(9)-----|--------------------|----------9-(9)-----|--------------------|
 |--2-/-9-------------|-------10-----------|--2-/-9-------------|-------10-----------|
 |-----------------0--|---3—/-----------0--|-----------------0--|---3—/-----------0--|

 


 | |___| |___| | |· |_ | |___| |___| | |· |_


 


 [169]  

 
 |--------------------|--------------------|--------------------|--------------------|
 |--------------------|--------------------|--------------------|--------------------|
 |-----2---/---9------|----10--------7--\--|-----2---/---9------|----10--------7--/--|
 |--------------------|--------------------|--------------------|--------------------|

 


 |· |· |· |· |· |· |· |·


 


 


 [173]  

 
 |--------------------|--------------------|--------------------|--------------------||
 |--------------------|--------------------|--------------------|--------------------||
 |----14-------9------|----10--------7--/--|----14-------9------|----10--------7--\--||
 |--------------------|--------------------|--------------------|--------------------||

 


 |· |· |· |· |· |· |· |·


 


 [177]  

 
 |--------------------|--------------------|--------------------|--------------------|
 |--------------------|--------------------|-------------H------|--------------------|
 |----2---------2-----|---------2----------|----2-------4-5--2--|---------2----------|
 |---------2----------|----2---------2-----|---------2----------|----2---------2-----|

 


 | | | | | | | |__=== | | | |


 


 181


 

 
 |--------------------|--------------------|--------------------|--------------------||
 |--------------------|--------------------|--------------------|--------------------||
 |----2---------2-----|---------2----------|---2----------------|--(2)---------------||
 |---------2----------|----2---------------|--------------------|--------------------||


Important: The song above is NOT stored on the Chordie server. The original song is hosted at www.guitartabs.cc. Chordie works as a search engine and provides on-the-fly formatting. Chordie does not index songs against artists'/composers' will. To remove this song please click here.

This song is displayed as text-only. Transposing and tuning is only available for chordpro-songs.
Rate #1 of 6 versions

Jango Player

Login - add to songbook

SHARE PAGE  




You need to log in to post comments