Guitar Tabs, Chords and Lyrics
Major upgrade!! After one year development the new version of Chordie is now online! Please give feedback.


The 2nd Law: Unsustainable   Muse

 
 -------------------------------------------------------------------------------

 


 THE 2ND LAW:UNSUSTAINABLE - MUSE


 

 
 -------------------------------------------------------------------------------

 


 


 Tabbed by: Kyle Carbutt


 E-mail: kylecarbutt@btinternet.com


 


 Tuning: Standard


 


 For this TAB I will be using a number of symbols to show the movement of the octave pedal.


 You can figure out timings for yourself. It's fairly simple.


 [ =Up one octave


 ] = Back to original octave


 (--)= Notes played on upper octave


 


 

 
 E-----------------------------------------------------|
 B-----------------------------------------------------|
 G-----------------------------------------------------|
 D-------------(7--7-7-7)----------7-7-8-8-8-8b-8b-8b--|
 A---------------------------------7-7-8-8-8-8b-8b-8b--|
 E---5[----5-----------------5[----5-5-6-6-6-6b-6b-6b--|
 E-----------------------------------------------------|
 B-----------------------------------------------------|
 G-----------------------------------------------------|
 D-----------------------------------------------------|
 A-(Various pickscrapes with delay)------12\0----------|
 E-----------------------------------------------------|

 


 


 [+]  

 
 E-----------------------------------------------------|
 B---11-11-11----11-11-11------------------------------|
 G---14-14-14----14-14-14------------------------------|
 D-----------------------------------------------------|
 A-0------------0--------------5-[]-[]-[]-[]-[]-[]-[]--|
 E-------------------------5[--------------------------|

 


 


 Repeat all of this twice before ending on this.


 

 
 E----------------------------------------------------------|
 B----------------------------------------------------------|
 G----------------------------------------------------------|
 D----------------------------------------------------------|
 A-12\0-----------------------------------------------------|
 E----------------------------------------------------------|


Important: The song above is NOT stored on the Chordie server. The original song is hosted at www.guitartabs.cc. Chordie works as a search engine and provides on-the-fly formatting. Chordie does not index songs against artists'/composers' will. To remove this song please click here.

This song is displayed as text-only. Transposing and tuning is only available for chordpro-songs.
Rate #1 of 1 versions

Login - add to songbook

SHARE PAGE  




You need to log in to post comments