Guitar Tabs, Chords and Lyrics
Major upgrade!! After one year development the new version of Chordie is now online! Please give feedback.


Differently  Neil Young

Tabbed by: Rider
Tuning:Standard
Chords:
[Em] [Am] [G] [D] [C]  
 
 e|--7----5----------5----8--|
 B|--8----5----12----7----8--|
 G|--9----5----12----7----9--|
 D|--9----7----12----7---10--|
 A|--7----7----10----5---10--|
 E|--0----5---------------8--|

Intro:
 
 e|----------------------------------------|
 B|----------------------------------------|
 G|---7-9-11-9-7---------------------------|
 D|-9------------9-7-9---5-7-9-7-5---------| x2
 A|--------------------7-----------7-5-7---|
 E|----------------------------------------|

Verse:
[Em]Wish you told me by and by,
[Am]That my life would come to this,
[Em]That I'd have to find a way
To let things [Am]go,
That my f[Em]riends would turn to foes,
And my [Am]love would come to blows,
Then I [Em]would have done some things
[Am]Differently.
Chorus:
Different[G]ly
I would ask you out every [C]night
[G]Differently
And I would make you feel so [C]good.
[G]Differently
And appreciate the things that you [C]bring to me, babe
Different[G]ly
Oh yes I would, oh [C]yeah.
Verse:
Yeah I know you tried and tried
But your signal I just missed
When you said my little girl would soon be gone.
Yes I didn't hear you then
And it might be too late now
That's another thing I'd do
Differently.
Chorus:
Differently
Like trying to make you feel loved every day
Differently
And saying little things to let you know how I feel
Differently
Yes I can hear your young voice calling me babe
Differently
Refrain:
[Em]When I'm away I call you up
[D]And you don't seem to miss me as much
[C]But I know our love is still [G]there in your [D]heart
[D]Just differently.
Intro x1
 
 e|------------------------------|
 B|------------------------------|
 G|---7-9-11-9-7-----------------|
 D|-9------------9-7-9---5-9-7---|
 A|--------------------7---------|
 E|------------------------------|

Intro x1
 
 e|------------------------------|
 B|------------------------------|
 G|---7-9-11-9-7-----------------|
 D|-9------------9-7-9---5-9-7---|
 A|--------------------7---------|
 E|------------------------------|

Chorus:
Differently
Oh yes, I can hear your young voice calling me, babe
Differently
Oh yes I can.
Differently
I'd appreciate the things that you bring to me babe, yes I would
Differently
Oh come on back to me babe bring your love back to me
Differently
Oh yeah I need your love, I need your love.
Differently
Yes I can tell you babe, I need your love.
Differently
Today is a brand new day, yes it is.
Differently
Got to get your love back, babe, come on now bring it back to me.
Differently
Turn it around babe, turn it around and bring it back.
Differently
Yeah, yeah, oh yeah, got to get your love back, come on babe.
Differently
Yeah I can hear your young voice calling me babe.
Differently
Come on back to me, come on back, yeah yeah, turn it around.
Differently
Oh yes I can, yes I can.
Differently.
Outro Solo:
 
 e|-----------------------------------|
 B|-----------------------------------|
 G|------12-12-12----12-14-16-14-12---|
 D|-9-12----------12------------------|
 A|-----------------------------------|
 E|-----------------------------------|


Important: The song above is NOT stored on the Chordie server. The original song is hosted at www.guitartabs.cc. Chordie works as a search engine and provides on-the-fly formatting. Chordie does not index songs against artists'/composers' will. To remove this song please click here.

Text color:
Chord color:
Chord grids: 
Font size:    
Page size: 

Am C D Em G
Rate #0 of 2 versions

Jango Player

Login - add to songbook

SHARE PAGE  



You need to log in to post comments