Guitar Tabs, Chords and Lyrics
Major upgrade!! After one year development the new version of Chordie is now online! Please give feedback.


Harvest Moon  Neil Young

[INTRO] 
[D] [D] [D] [D] [D] [D] [D] [D]  
 
 G:--------|--------|--------|---/2---|--------|--------|--------|--------|
 D:0-------|0-------|0-------|0-------|0-------|0-------|0-------|0-------|
 A:----0---|----0---|----0---|--------|----0---|----0--0|----0---|----0--0|
 E:--------|--------|--------|--------|--------|--------|--------|--------|

[VERSE] 
[Em] Come a [Em]little bit closer [Em] Hear [Em]what I have to [D]say[D] [D] [D]
[Em] Just like [Em]children sleepin' [Em] We could [Em]dream this night a[D]way[D] [D] [D]
Em Em Em Em D D D D ~3~
 
 G:--------|--------|--------|--------|--------|--------|--------|---------|
 D:2-------|2-------|2-------|2-------|0-------|0-------|0-------|0-------0|
 A:----222-|----2---|----2222|----2-0-|----0---|----0-0-|----0---|----0-24-|
 E:--------|--------|--------|--------|--------|--------|--------|---------|

[Em] [Em] [Em] [Em] [D] [D] [D] [D]  
 
 G:--------|--------|--------|--------|--------|--------|--------|--------|
 D:2-------|2-------|2-------|2--2----|0-------|0-------|0-------|0-------|
 A:----2222|----222-|----2222|----0-2-|----0---|----0---|----0---|----0---|
 E:--------|--------|--------|--------|--------|--------|--------|--------|

[VERSE] 
[G] But there's a [G]full moon rising [G] Let's go [G]dancin' in the [D]light[D] [D] [D]
[G] We know where the [G]music's playin' [G] Let's go [G]out and feel the [D]night[D] [D] [D]
[G] [G] [G] [G] [D] [D] [D] [D]  
 
 G:--------|--------|--------|--------|--------|--------|--------|--------|
 D:5-------|5-------|5-------|5--/7---|0-------|0-------|0-------|0-------|
 A:----5---|----5--5|----5---|--------|----0---|----0---|----0---|----0---|
 E:--------|--------|--------|--------|--------|--------|--------|--------|

[G] [G] [G] [G] [D] [D] [D] [D]  
 
 G:--------|--------|--------|--------|--------|--------|--------|--------|
 D:5-------|5-------|5-------|5-------|0-------|0-------|0-------|0-------|
 A:----5---|----5---|----5---|----0-2-|----0---|----0---|----0---|--------|
 E:--------|--------|--------|---3----|--------|--------|--------|----2-3-|

[CBORUS] 
[Em] Because I'm [Em]still in love with [A]you I want to [A]see you dance a[Em]gain
[Em] Because I'm [Em]still in love with [A]you [A]On this harvest [D]moon[D] [D] [D]
[Em] [Em] [A] [A] [Em] [Em] [A] [A]  
 
 G:--------|--------|--------|--------|--------|--------|--------|--------|
 D:--------|----0-2-|--------|----4-2-|--------|----0-2-|--------|------2-|
 A:0---0---|0-------|0---0---|0-------|0---0---|0-------|0---0---|0-2-4---|
 E:--------|--------|--------|--------|--------|--------|--------|--------|

[D] [D] [D] [D] [D] [D] [D] [D]  
 
 G:--------|--------|--------|--------|--------|--------|--------|--------|
 D:0-------|0-------|0-------|0-----2-|0-------|0-------|0-------|0-------|
 A:----0---|----0---|----0---|----0---|----0---|----0---|----0---|----0-2-|
 E:--------|--------|--------|--------|--------|--------|--------|--------|

[VERSE] 
[Em] When [Em]we were strangers [Em] I [Em]watched you from a[D]far[D] [D] [D]
[Em] When [Em]we were lovers [Em] I loved [Em]you with all my [D]heart[D] [D] [D]
[Em] [Em] [Em] [Em] [D] [D] [D] [D]  
 
 G:--------|--------|--------|--------|--------|----2---|--------|--------|
 D:2-------|2-------|2-------|2-------|0-------|0-------|0-------|0-------|
 A:----222-|----2---|----2222|------0-|----0---|--------|----0---|----0-2-|
 E:--------|--------|--------|----3---|--------|--------|--------|--------|

[Em] [Em] [Em] [Em] [D] [D] [D] [D]  
 
 G:--------|--------|--------|--------|--------|--------|--------|--------|
 D:2-------|2-------|2-------|2-------|0-------|0-------|0-------|0-------|
 A:----2222|----222-|----2222|----0-2-|----0---|----0--0|----0---|-----0-4|
 E:--------|--------|--------|--------|--------|--------|--------|----3-3-|

[VERSE] 
[G] But now it's [G]gettin' late [G] And the [G]moon is climbin' [D]high[D] [D] [D]
[G] I wanna [G]celebrate [G] See it [G]shinin' in your [D]eye[D] [D] [D]
[G] [G] [G] [G] [D] [D] [D] [D]  
 
 G:--------|--------|--------|--------|--------|----2---/7-------|--------|
 D:5-------|5-------|5---5---|5--52---|0-------|0-------|----7---|0-------|
 A:----5---|----5--5|--------|------0-|----0---|--------|--------|----0---|
 E:--------|--------|--------|--------|--------|--------|--------|--------|

[G] [G] [G] [G] [D] [D] [D] [D]  
 
 G:--------|--------|--------|--------|--------|----2---|--------|--------|
 D:5-------|5-------|5-------|5--57-7-|0-------|0-------|0-------|0-------|
 A:----5---|----5---|----5---|--------|----0---|--------|----0---|--------|
 E:--------|--------|--------|--------|--------|--------|--------|----2-3-|

[CBORUS] 
[Em] Because I'm [Em]still in love with [A]you I want to [A]see you dance a[Em]gain
[Em] Because I'm [Em]still in love with [A]you [A]On this harvest [D]moon[D] [D] [D]
[Em] [Em] [A] [A] [Em] [Em] [A] [A]  
 
 G:--------|--------|--------|--------|--------|--------|--------|--------|
 D:--------|----0-2-|--------|----4-2-|--------|----0-2-|--------|------2-|
 A:0---0---|0-------|0---0---|0-------|0---0---|0-------|0---0---|0-2-4---|
 E:--------|--------|--------|--------|--------|--------|--------|--------|

[D] [D] [D] [D] [D] [D] [D] [D]  
 
 G:--------|--------|--------|--------|--------|--------|--------|--------|
 D:0-------|0-------|0-------|0-------|0-------|0-------|0-------|0-------|
 A:----0---|----0---|----0---|----0---|----0---|----0---|----0---|----0---|
 E:--------|--------|--------|--------|--------|--------|--------|--------|

[INSTRUMENTAL] (Harmonica)
[G] [G] [G] [G] [D] [D] [D] [D]  
 
 G:--------|--------|--------|--------|--------|--------|--------|--------|
 D:5-------|5-------|5-------|5--/7---|0-------|0-------|0-------|0-------|
 A:----5---|----5--5|----5---|--------|----0---|----0---|----0---|----0-0-|
 E:--------|--------|--------|--------|--------|--------|--------|--------|

G G G G D D D D ~3~
 
 G:--------|--------|--------|--------|--------|--------|--------|---------|
 D:5-------|5-------|5-------|5---5-7-|0-------|0-------|0-------|0-----0--|
 A:----5---|----5---|----5---|--------|----0---|----0--0|----0---|----0--42|
 E:--------|--------|--------|--------|--------|--------|--------|---------|

[CBORUS] 
[Em] Because I'm [Em]still in love with [A]you I want to [A]see you dance a[Em]gain
[Em] Because I'm [Em]still in love with [A]you [A]On this harvest [D]moon[D] [D] [D]
[Em] [Em] [A] [A] [Em] [Em] [A] [A]  
 
 G:--------|--------|--------|--------|--------|--------|--------|--------|
 D:--------|----0-2-|--------|----0-2-|--------|----0-2-|--------|------2-|
 A:0---0---|0-------|0---000-|0-0-----|0---0---|0-------|0---0---|0-2-4---|
 E:--------|--------|--------|--------|--------|--------|--------|--------|

D D D D ~3~ D D D D D
 
 G:--------|--------|--------|------2--|--------|--------|--------|--------|--------|
 D:0-------|0-------|0-------|0------42|0-------|0-------|0-------|0-------|0-------|
 A:----0---|----0---|----0---|----0----|----0---|----0---|----0---|----0---|--------|
 E:--------|--------|--------|---------|--------|--------|--------|--------|--------|

Tabbed by Michael Oxner
moxner@nbnet.nb.ca
April 29th, 2011

Important: The song above is NOT stored on the Chordie server. The original song is hosted at www.guitartabs.cc. Chordie works as a search engine and provides on-the-fly formatting. Chordie does not index songs against artists'/composers' will. To remove this song please click here.

Text color:
Chord color:
Chord grids: 
Font size:    
Page size: 

A D Em G
Rate #1 of 12 versions

Jango Player

Login - add to songbook

SHARE PAGE  




You need to log in to post comments