Guitar Tabs, Chords and Lyrics
Server problems seems to be fixed. Chordie has been experiencing problems with songs disappearing. These issues now seems to be fixed, but still verifying the fix. If you find anything strange, please email admin@chordie.com.


Constant Static  New Found Glory

Gtr I (E A D G B E) - 'Chad'
Gtr II (E A D G B E) - 'Steve'
Gtr III (E A D G B E) - 'Steve'
Intro
Fast Q=100
N.C.
[4/4] Gtr I
E S S S S S S S S S S S S S S E S S S S S S S S S S S S S S
 
 |-------------------------------|--------------------------------|
 |-------------------------------|--------------------------------|
 |---x-6-6-6-7-7-x-------6-6-7-7-|---x-6-6-6-7-7-x-------6-6-7-7--|
 |---x-7-7-7-7-7-x-------7-7-7-7-|---x-7-7-7-7-7-x-------7-7-7-7--|
 |-5-x-----------x-5-5-5---------|-5-x-----------x-5-5-5----------|
 |-------------------------------|--------------------------------|

Gtr I
E S S S S S S S S S S S S S S E S S S S S S S S S S S S S S
 
 |-------------------------------|--------------------------------|
 |-------------------------------|--------------------------------|
 |---x-6-6-6-7-7-x-------6-6-7-7-|---x-6-6-6-7-7-x--------6-6-7-7-|
 |---x-7-7-7-7-7-x-------7-7-7-7-|---x-7-7-7-7-7-x--------7-7-7-7-|
 |-2-x-----------x-2-2-2---------|---x-----------x----------------|
 |-------------------------------|-3----------------3-3-3---------|

|
| Gtr II
| W H H
 
 |-------------------------------|--------------------------------|
 |-------------------------------|--------------------------------|
 |-------------------------------|--------------------------------|
 |-------------------------------|--------------------------------|
 |-------------------------------|---------------x\---------------|
 |-------------------------------|---------------x\---------------|

[D5]E S S S S S S S S S S S S S S E S S S S S S S S S S S S S S
 
 |---------------------------------|---------------------------------|
 |---------------------------------|---------------------------------|
 |-----x-6-6-6-7-7-x-------6-6-7-7-|-----x-6-6-6-7-7-x-------6-6-7-7-|
 |-----x-7-7-7-7-7-x-------7-7-7-7-|-----x-7-7-7-7-7-x-------7-7-7-7-|
 |-5---x-----------x-5-5-5---------|-5---x-----------x-5-5-5---------|
 |---------------------------------|---------------------------------|

|
| S S S S S S S S S S S S S S S S S S S S S S S S S S S S S S S S
 
 |---------------------------------|---------------------------------|
 |---------------------------------|---------------------------------|
 |-7-7-7-7-7-7-7-7-7-7-7-7-7-7-7-7-|-7-7-7-7-7-7-7-7-7-7-7-7-7-7-7-7-|
 |-7-7-7-7-7-7-7-7-7-7-7-7-7-7-7-7-|-7-7-7-7-7-7-7-7-7-7-7-7-7-7-7-7-|
 |-5-5-5-5-5-5-5-5-5-5-5-5-5-5-5-5-|-5-5-5-5-5-5-5-5-5-5-5-5-5-5-5-5-|
 |---------------------------------|---------------------------------|

[B5]E S S S S S S S S S S S S S S [G5]E S S S S S S S S S S S S S S
 
 |---------------------------------|---------------------------------|
 |---------------------------------|---------------------------------|
 |-----x-6-6-6-7-7-x-------6-6-7-7-|-----x-6-6-6-7-7-x-------6-6-7-7-|
 |-----x-7-7-7-7-7-x-------7-7-7-7-|-----x-7-7-7-7-7-x-------7-7-7-7-|
 |-2---x-----------x-2-2-2---------|-----x-----------x---------------|
 |---------------------------------|-3-----------------3-3-3---------|

|
| S S S S S S S S S S S S S S S S S S S S S S S S S S S S S S S S
 
 |---------------------------------|---------------------------------|
 |---------------------------------|---------------------------------|
 |-4-4-4-4-4-4-4-4-4-4-4-4-4-4-4-4-|---------------------------------|
 |-4-4-4-4-4-4-4-4-4-4-4-4-4-4-4-4-|-5-5-5-5-5-5-5-5-5-5-5-5-5-5-5-5-|
 |-2-2-2-2-2-2-2-2-2-2-2-2-2-2-2-2-|-5-5-5-5-5-5-5-5-5-5-5-5-5-5-5-5-|
 |---------------------------------|-3-3-3-3-3-3-3-3-3-3-3-3-3-3-3-3-|

Verse
[D5]Gtrs I, II[B5]
 
 PM| PM--| PM| PM--| PM| PM--|

S S Q. S S S S Q S S Q. S S S S Q S S Q. S S S S Q
 
 ||----------------------|---------------------|---------------------|
 ||o---------------------|---------------------|---------------------|
 ||----------------------|---------------------|---------------------|
 ||--7-7--------7-7-7----|-7-7--------7-7-7----|-4-4--------4-4-4----|
 ||o-5-5--------5-5-5----|-5-5--------5-5-5----|-2-2--------2-2-2----|
 ||----------------------|---------------------|---------------------|

[G5] [D5]  
 
 PM| PM--| PM| PM--| PM| PM--|

S S Q. S S S S Q S S Q. S S S S Q S S Q. S S S S Q
 
 |---------------------|---------------------|----------------------|
 |---------------------|---------------------|----------------------|
 |---------------------|---------------------|----------------------|
 |---------------------|-7-7--------7-7-7----|-7-7--------7-7-7-----|
 |-5-5--------5-5-5----|-5-5--------5-5-5----|-5-5--------5-5-5-----|
 |-3-3--------3-3-3----|---------------------|----------------------|

[B5]PM| PM--| [G5]PM| PM--| PM|[D5]
S S Q. S S S S Q S S Q. S S S S S S S S W
 
 |---------------------|--------------------------|------|
 |---------------------|--------------------------|------|
 |---------------------|--------------------------|------|
 |-4-4--------4-4-4----|--------------------------|-7----|
 |-2-2--------2-2-2----|-5-5--------5-5-5---5-5---|-7----|
 |---------------------|-3-3--------3-3-3---3-3---|-5----|

Chorus
[D5]Gtr I
S S S S S S S S S S S S S S S S S S S S S S S S S S S S S S S S
 
 |---------------------------------|---------------------------------|
 |---------------------------------|---------------------------------|
 |-7-7-7-7-7-7-7-7-7-7-7-7-7-7-7-7-|-6-6-6-6-6-6-6-6-6-6-6-6-6-6-6-6-|
 |-x-x-x-x-x-x-x-x-x-x-x-x-x-x-x-x-|-x-x-x-x-x-x-x-x-x-x-x-x-x-x-x-x-|
 |-5-5-5-5-5-5-5-5-5-5-5-5-5-5-5-5-|-4-4-4-4-4-4-4-4-4-4-4-4-4-4-4-4-|
 |---------------------------------|---------------------------------|

|
| Gtr II
| S S S S S S S S S S S S S S S S S S S S S S S S S S S S S S S S
 
 |---------------------------------|---------------------------------|
 |---------------------------------|---------------------------------|
 |---------------------------------|---------------------------------|
 |-7-7-7-7-7-7-7-7-7-7-7-7-7-7-7-7-|-7-7-7-7-7-7-7-7-7-7-7-7-7-7-7-7-|
 |-5-5-5-5-5-5-5-5-5-5-5-5-5-5-5-5-|-5-5-5-5-5-5-5-5-5-5-5-5-5-5-5-5-|
 |---------------------------------|---------------------------------|

( Tab from: http://www.guitartabs.cc/tabs/n/new_found_glory/constant_static_tab_ver_3.html )
[B5]S S S S S S S S S S S S S S S S [G5]E. S S S E. S S S E S S
 
 |---------------------------------|-------------------------|
 |---------------------------------|-------------------------|
 |-6-6-6-6-6-6-6-6-6-6-6-6-6-6-6-6-|-------------------------|
 |-x-x-x-x-x-x-x-x-x-x-x-x-x-x-x-x-|-5--5-x-x-5--5-x-x-5-x-x-|
 |-2-2-2-2-2-2-2-2-2-2-2-2-2-2-2-2-|-5--5-x-x-5--5-x-x-5-x-x-|
 |---------------------------------|-3--3-x-x-3--3-x-x-3-x-x-|

|
| S S S S S S S S S S S S S S S S E. S S S E. S S S E S S
 
 |---------------------------------|-------------------------|
 |---------------------------------|-------------------------|
 |---------------------------------|-------------------------|
 |-4-4-4-4-4-4-4-4-4-4-4-4-4-4-4-4-|-5--5-x-x-5--5-x-x-5-x-x-|
 |-2-2-2-2-2-2-2-2-2-2-2-2-2-2-2-2-|-5--5-x-x-5--5-x-x-5-x-x-|
 |---------------------------------|-3--3-x-x-3--3-x-x-3-x-x-|

[D5]S S S S S S S S S S S S S S S S S S S S S S S S S S S S S S S S
 
 |---------------------------------|---------------------------------|
 |---------------------------------|---------------------------------|
 |-7-7-7-7-7-7-7-7-7-7-7-7-7-7-7-7-|-6-6-6-6-6-6-6-6-6-6-6-6-6-6-6-6-|
 |-x-x-x-x-x-x-x-x-x-x-x-x-x-x-x-x-|-x-x-x-x-x-x-x-x-x-x-x-x-x-x-x-x-|
 |-5-5-5-5-5-5-5-5-5-5-5-5-5-5-5-5-|-4-4-4-4-4-4-4-4-4-4-4-4-4-4-4-4-|
 |---------------------------------|---------------------------------|

|
| S S S S S S S S S S S S S S S S S S S S S S S S S S S S S S S S
 
 |---------------------------------|---------------------------------|
 |---------------------------------|---------------------------------|
 |---------------------------------|---------------------------------|
 |-7-7-7-7-7-7-7-7-7-7-7-7-7-7-7-7-|-7-7-7-7-7-7-7-7-7-7-7-7-7-7-7-7-|
 |-5-5-5-5-5-5-5-5-5-5-5-5-5-5-5-5-|-5-5-5-5-5-5-5-5-5-5-5-5-5-5-5-5-|
 |---------------------------------|---------------------------------|

[B5]S S S S S S S S S S S S S S S S [G5]E. S S S E. S S S E S S
 
 |---------------------------------|-------------------------|
 |---------------------------------|-------------------------|
 |-6-6-6-6-6-6-6-6-6-6-6-6-6-6-6-6-|-------------------------|
 |-x-x-x-x-x-x-x-x-x-x-x-x-x-x-x-x-|-5--5-x-x-5--5-x-x-5-x-x-|
 |-2-2-2-2-2-2-2-2-2-2-2-2-2-2-2-2-|-5--5-x-x-5--5-x-x-5-x-x-|
 |---------------------------------|-3--3-x-x-3--3-x-x-3-x-x-|

|
| S S S S S S S S S S S S S S S S E. S S S E. S S S E S S
 
 |---------------------------------|-------------------------|
 |---------------------------------|-------------------------|
 |---------------------------------|-------------------------|
 |-4-4-4-4-4-4-4-4-4-4-4-4-4-4-4-4-|-5--5-x-x-5--5-x-x-5-x-x-|
 |-2-2-2-2-2-2-2-2-2-2-2-2-2-2-2-2-|-5--5-x-x-5--5-x-x-5-x-x-|
 |---------------------------------|-3--3-x-x-3--3-x-x-3-x-x-|

1. 2.
[G5]Gtrs I, II[G5]
E. S S S E. S S S E S S E. S S S E. S S S E S S
 
 |--------------------------||-------------------------|
 |-------------------------o||-------------------------|
 |--------------------------||-------------------------|
 |-5--5-x-x-5--5-x-x-5-x-x--||-5--5-x-x-5--5-x-x-5-x-x-|
 |-5--5-x-x-5--5-x-x-5-x-x-o||-5--5-x-x-5--5-x-x-5-x-x-|
 |-3--3-x-x-3--3-x-x-3-x-x--||-3--3-x-x-3--3-x-x-3-x-x-|

Interlude
Gtrs I, II
W W 4x
 
 ||-----------|-------||
 ||o----------|------o||
 ||-----------|-------||
 ||-----------|-------||
 ||o----------|------o||
 ||-----------|-------||

Bridge
[G5]Gtrs I, II[A5] [D5]
E S S S S E S S S S E S S E S S S S E S S S S E S S 4x
 
 ||----------------------------|----------------------------||
 ||o---------------------------|---------------------------o||
 ||----------------------------|----------------------------||
 ||----------------------------|-7-7-7-7-7-7-7-7-7-7-7-7-7--||
 ||o-4-4-4-4-4-5-5-5-5-5-5-5-5-|-5-5-5-5-5-5-5-5-5-5-5-5-5-o||
 ||--2-2-2-2-2-3-3-3-3-3-3-3-3-|----------------------------||

[D]Gtr II[C#]
S S S S S S S S S S S S S S S S S S S S S S S S S S S S S S S S
 
 |---------------------------------|---------------------------------|
 |---------------------------------|---------------------------------|
 |-7-7-7-7-7-7-7-7-7-7-7-7-7-7-7-7-|-6-6-6-6-6-6-6-6-6-6-6-6-6-6-6-6-|
 |-x-x-x-x-x-x-x-x-x-x-x-x-x-x-x-x-|-x-x-x-x-x-x-x-x-x-x-x-x-x-x-x-x-|
 |-5-5-5-5-5-5-5-5-5-5-5-5-5-5-5-5-|-4-4-4-4-4-4-4-4-4-4-4-4-4-4-4-4-|
 |---------------------------------|---------------------------------|

[B] [G5]Gtrs I, II
S S S S S S S S S S S S S S S S E. S S S E. S S S E S S
 
 |---------------------------------|-------------------------|
 |---------------------------------|-------------------------|
 |-4-4-4-4-4-4-4-4-4-4-4-4-4-4-4-4-|-------------------------|
 |-x-x-x-x-x-x-x-x-x-x-x-x-x-x-x-x-|-5--5-x-x-5--5-x-x-5-x-x-|
 |-2-2-2-2-2-2-2-2-2-2-2-2-2-2-2-2-|-5--5-x-x-5--5-x-x-5-x-x-|
 |---------------------------------|-3--3-x-x-3--3-x-x-3-x-x-|

Chorus
[D5]Gtr I
S S S S S S S S S S S S S S S S S S S S S S S S S S S S S S S S
 
 ||----------------------------------|---------------------------------|
 ||o---------------------------------|---------------------------------|
 ||--7-7-7-7-7-7-7-7-7-7-7-7-7-7-7-7-|-6-6-6-6-6-6-6-6-6-6-6-6-6-6-6-6-|
 ||--x-x-x-x-x-x-x-x-x-x-x-x-x-x-x-x-|-x-x-x-x-x-x-x-x-x-x-x-x-x-x-x-x-|
 ||o-5-5-5-5-5-5-5-5-5-5-5-5-5-5-5-5-|-4-4-4-4-4-4-4-4-4-4-4-4-4-4-4-4-|
 ||----------------------------------|---------------------------------|

|
| Gtr II
| S S S S S S S S S S S S S S S S S S S S S S S S S S S S S S S S
 
 ||----------------------------------|---------------------------------|
 ||o---------------------------------|---------------------------------|
 ||----------------------------------|---------------------------------|
 ||--7-7-7-7-7-7-7-7-7-7-7-7-7-7-7-7-|-7-7-7-7-7-7-7-7-7-7-7-7-7-7-7-7-|
 ||o-5-5-5-5-5-5-5-5-5-5-5-5-5-5-5-5-|-5-5-5-5-5-5-5-5-5-5-5-5-5-5-5-5-|
 ||----------------------------------|---------------------------------|

[B5]S S S S S S S S S S S S S S S S [G5]E. S S S E. S S S E S S
 
 |---------------------------------|--------------------------||
 |---------------------------------|-------------------------o||
 |-6-6-6-6-6-6-6-6-6-6-6-6-6-6-6-6-|--------------------------||
 |-x-x-x-x-x-x-x-x-x-x-x-x-x-x-x-x-|-5--5-x-x-5--5-x-x-5-x-x--||
 |-2-2-2-2-2-2-2-2-2-2-2-2-2-2-2-2-|-5--5-x-x-5--5-x-x-5-x-x-o||
 |---------------------------------|-3--3-x-x-3--3-x-x-3-x-x--||

|
| S S S S S S S S S S S S S S S S E. S S S E. S S S E S S
 
 |---------------------------------|--------------------------||
 |---------------------------------|-------------------------o||
 |---------------------------------|--------------------------||
 |-4-4-4-4-4-4-4-4-4-4-4-4-4-4-4-4-|-5--5-x-x-5--5-x-x-5-x-x--||
 |-2-2-2-2-2-2-2-2-2-2-2-2-2-2-2-2-|-5--5-x-x-5--5-x-x-5-x-x-o||
 |---------------------------------|-3--3-x-x-3--3-x-x-3-x-x--||

[G5]Gtrs I, II
E. S S S E. S S S E S S E. S S S E +H +W +W
 
 |-------------------------|-------------------|------------|--------|
 |-------------------------|-------------------|------------|--------|
 |-------------------------|-------------------|------------|--------|
 |-5--5-x-x-5--5-x-x-5-x-x-|-5--5-x-x-5-(5)----|-(5)--------|-(5)----|
 |-5--5-x-x-5--5-x-x-5-x-x-|-5--5-x-x-5-(5)----|-(5)--------|-(5)----|
 |-3--3-x-x-3--3-x-x-3-x-x-|-3--3-x-x-3-(3)----|-(3)--------|-(3)----|

+W +W +W +W
 
 |------------|------------|------------|--------*|
 |------------|------------|------------|--------*|
 |------------|------------|------------|--------*|
 |-(5)--------|-(5)--------|-(5)--------|-(5)----*|
 |-(5)--------|-(5)--------|-(5)--------|-(5)----*|
 |-(3)--------|-(3)--------|-(3)--------|-(3)----*|


Important: The song above is NOT stored on the Chordie server. The original song is hosted at www.guitartabs.cc. Chordie works as a search engine and provides on-the-fly formatting. Chordie does not index songs against artists'/composers' will. To remove this song please click here.

Text color:
Chord color:
Chord grids: 
Font size:    
Page size: 

A5 B B5 C# D D5 G5
Rate #1 of 1 versions

Login - add to songbook

SHARE PAGE  




You need to log in to post comments