Guitar Tabs, Chords and Lyrics
Server problems seems to be fixed. Chordie has been experiencing problems with songs disappearing. These issues now seems to be fixed, but still verifying the fix. If you find anything strange, please email admin@chordie.com.


Hold My Hand   New Found Glory

 
 ------------------------------------------------------------------------------

 


 New Found Glory - Hold My Hand


 

 
 ------------------------------------------------------------------------------

 


 Guitar 1-Tuning: Standard (EADGBe)


 


 Intro/Verse


 Rhy.Fig.1 End Rhy.Fig.1


 

 
 e|---------------------------------------------------------------------------|
 B|---------------------------------------------------------------------------|
 G|---------------------------------------------------------------------------|
 D|4-4-4-4-4-4-4-4-4-4-4-4-4-4------------------------------------------------|
 A|2-2-2-2-2-2-2-2-2-2-2-2-2-2-2-2-6-6-6-6-6-6-6-6-6-6-6-6-6-6-2-2------------|
 E|----------------------------0-0-4-4-4-4-4-4-4-4-4-4-4-4-4-4-0-0------------|
 PM- - - - - - - - - - - - - - - - - - - - - - - - - - - - - - - -|

 


 


 Verse


 Rhy.Fig.2 End Rhy.Fig.2


 

 
 e|---------------------------------------------------------------------------|
 B|---------------------------------------------------------------------------|
 G|---------------------------------------------------------------------------|
 D|4-4-4-4-4-4-4-4-4-4-4-4-4-4---------------------6-6-6-6-6-6-6-6------------|
 A|2-2-2-2-2-2-2-2-2-2-2-2-2-2-2-2-6-6-6-6-6-6-6-6-6-6-6-6-6-6-6-6------------|
 E|----------------------------0-0-4-4-4-4-4-4-4-4-4-4-4-4-4-4-4-4------------|
 PM- - - - - - - - - - - - - - - - - - - - - - - -|

 


 


 Pre-Chorus


 Rhy.Fig.3


 

 
 e|---------------------------------------------------------------------------|
 B|---------------------------------------------------------------------------|
 G|---------------------------------------------------------------------------|
 D|2-2-2-2--2--2--2--6-6-6-4-4-4---4--4-4--4----------------------------------|
 A|2-2-2-2--2--2--2--6-6-6-4-4-4-2-4--4-4--4--4/6-----------------------------|
 E|0-0-0-0--0--0--0--4-4-4-2-2-2-0-2--2-2--2--2/4-----------------------------|

 


 


 End Rhy.Fig.3


 

 
 e|---------------------------------------------------------------------------|
 B|---------------------------------------------------------------------------|
 G|4--------------------------------------------------------------------------|
 D|4--2-2-2-2--2--2--2--6-6-6-4-4-4---4--4-4--4-------------------------------|
 A|2--2-2-2-2--2--2--2--6-6-6-4-4-4-2-4--4-4--4--4/6--------------------------|
 E|---0-0-0-0--0--0--0--4-4-4-2-2-2-0-2--2-2--2--2/4--------------------------|

 


 


 Chorus


 Rhy.Fig.4


 

 
 e|---------------------------------------------------------------------------|
 B|---------------------------------------------------------------------------|
 G|4--4-4--4-4-4--4-4-4--4-4-4------------------------------------------------|
 D|4--4-4--4-4-4--4-4-4--4-4-4--6--6-6--6-6-6--6-6-6--6-6-6-------------------|
 A|2--2-2--2-2-2--2-2-2--2-2-2--6--6-6--6-6-6--6-6-6--6-6-6-------------------|
 E|-----------------------------4--4-4--4-4-4--4-4-4--4-4-4-------------------|

 


 


 End Rhy.Fig.4


 

 
 e|---------------------------------------------------------------------------|
 B|---------------------------------------------------------------------------|
 G|---------------------------------------------------------------------------|
 D|4--4-4--4-4-4--4-4-4--4-4-4-----2--2-2-----2--2-2--------------------------|
 A|4--4-4--4-4-4--4-4-4--4-4-4-4/6-2--2-2-4/6-2--2-2-4/6----------------------|
 E|2--2-2--2-2-2--2-2-2--2-2-2-2/4-0--0-0-2/4-0--0-0-2/4----------------------|

 


 


 Verse


 Rhy.Fig.5 End Rhy.Fig.5


 

 
 e|---------------------------------------------------------------------------|
 B|---------------------------------------------------------------------------|
 G|4--------------------------------------------------------------------------|
 D|4-4-4-4-4-4-4-4-4-4-4-4-4-4-4----------------------------------------------|
 A|2-2-2-2-2-2-2-2-2-2-2-2-2-2-2-2-2-6-6-6-6-6-6-6-6-6-6-6-6-6-6-2-2----------|
 E|------------------------------0-0-4-4-4-4-4-4-4-4-4-4-4-4-4-4-0-0----------|
 PM- - - - - - - - - - - - - - - - - - - - - - - - - - - - - - - -|

 


 


 Interlude


 Rhy.Fig.6 End Rhy.Fig.6


 

 
 e|----------xx-x-x-x-xx-x-x-x-xx-x-x-x-xx-x-x-x-xx---------------------------|
 B|----------xx-x-x-x-xx-x-x-x-xx-x-x-x-xx-x-x-x-xx---------------------------|
 G|----------xx-x-x-x-xx-x-x-x-xx-x-x-x-xx-x-x-x-xx---------------------------|
 D|----------xx-x-x-x-xx-x-x-x-xx-x-x-x-xx-x-x-x-xx---------------------------|
 A|----------xx-x-x-x-xx-x-x-x-xx-x-x-x-xx-x-x-x-xx-2-2-----------------------|
 E|----------xx-x-x-x-xx-x-x-x-xx-x-x-x-xx-x-x-x-xx-0-0-----------------------|

 


 PM- -|


 Chorus


 Rhy.Fig.7


 

 
 e|---------------------------------------------------------------------------|
 B|---------------------------------------------------------------------------|
 G|4--4-4--4-4-4--4-4-4--4-4-4------------------------------------------------|
 D|4--4-4--4-4-4--4-4-4--4-4-4--6--6-6--6-6-6--6-6-6--6-6-6-------------------|
 A|2--2-2--2-2-2--2-2-2--2-2-2--6--6-6--6-6-6--6-6-6--6-6-6-------------------|
 E|-----------------------------4--4-4--4-4-4--4-4-4--4-4-4-------------------|

 


 


 End Rhy.Fig.7


 

 
 e|---------------------------------------------------------------------------|
 B|---------------------------------------------------------------------------|
 G|------------------------------------------------------4--------------------|
 D|4--4-4--4-4-4--4-4-4--4-4-4-----2--2-2-----2--2-2-----4--------------------|
 A|4--4-4--4-4-4--4-4-4--4-4-4-4/6-2--2-2-4/6-2--2-2-4/6-2--------------------|
 E|2--2-2--2-2-2--2-2-2--2-2-2-2/4-0--0-0-2/4-0--0-0-2/4----------------------|

 


 


 Chorus


 Rhy.Fig.8 End Rhy.Fig.8


 

 
 e|---------------------------------------------------------------------------|
 B|---------------------------------------------------------------------------|
 G|---------------------------------------------------------------------------|
 D|-----------------------------6--6-6--6--6-6--6--6-6--6--6-6----------------|
 A|-----------------------------6--6-6--6--6-6--6--6-6--6--6-6----------------|
 E|1/////////////////////////16-4--4-4--4--4-4--4--4-4--4--4-4----------------|

 


 


 Rhy.Fig.9 End Rhy.Fig.9


 

 
 e|---------------------------------------------------------------------------|
 B|---------------------------------------------------------------------------|
 G|---------------------------------------------------------------------------|
 D|4--4-4--4--4-4--4--4-4--4--4-4-2--2-2--2--2-2--2--2-2--2--2-2--------------|
 A|4--4-4--4--4-4--4--4-4--4--4-4-2--2-2--2--2-2--2--2-2--2--2-2--------------|
 E|2--2-2--2--2-2--2--2-2--2--2-2-0--0-0--0--0-0--0--0-0--0--0-0--------------|

 


 


 Rhy.Fig.10 End Rhy.Fig.10


 

 
 e|---------------------------------------------------------------------------|
 B|---------------------------------------------------------------------------|
 G|4--4-4--4--4-4--4--4-4--4--4-4---------------------------------------------|
 D|4--4-4--4--4-4--4--4-4--4--4-4-6--6-6--6--6-6--6--6-6--6--6-6--------------|
 A|2--2-2--2--2-2--2--2-2--2--2-2-6--6-6--6--6-6--6--6-6--6--6-6--------------|
 E|-------------------------------4--4-4--4--4-4--4--4-4--4--4-4--------------|

 


 


 Rhy.Fig.11 End Rhy.Fig.11


 

 
 e|---------------------------------------------------------------------------|
 B|---------------------------------------------------------------------------|
 G|---------------------------------------------------------------------------|
 D|4--4-4--4--4-4--4--4-4--4--4/6-2-------------------------------------------|
 A|4--4-4--4--4-4--4--4-4--4--4/6-2-------------------------------------------|
 E|2--2-2--2--2-2--2--2-2--2--2/4-0-------------------------------------------|

 


 


 1.Intro-Verse-Rhy.Fig.1(x4)→Verse-Rhy.Fig.2→Pre-Chorus-Rhy.Fig.3


 →Chorus-Rhy.Fig.4


 2.Verse-Rhy.Fig.5→Verse-Rhy.Fig.1→Verse-Rhy.Fig.2→Pre-Chorus-Rhy.Fig.3


 →Chorus-Rhy.Fig.4(x2)


 3.Interlude-Rhy.Fig.6→Verse-Rhy.Fig.1→Verse-Rhy.Fig.2→Pre-Chorus-Rhy.Fig.3


 →Chorus-Rhy.Fig.4→Chorus-Rhy.Fig.7→Chorus-Rhy.Fig.8→Chorus-Rhy.Fig.9


 →Chorus-Rhy.Fig.10→Chorus-Rhy.Fig.9→Chorus-Rhy.Fig.10→Chorus-Rhy.Fig.11


 

 
 -------------------------------------------------------------------------------------

 


 Guitar 2-Tuning: Standard (EADGBe)


 Create by bloodred16


 Edit by WKi


 


 Intro/Verse


 Riff.A End Riff.A


 

 
 e|--------------------------------------------------------------------------------------|
 B|--------------------------------------------------------------------------------------|
 G|--------------------------------------------------------------------------------------|
 D|4-4-4-4-4-4-4-4-4-4-4-4-4-4-----------------------------------------------------------|
 A|2-2-2-2-2-2-2-2-2-2-2-2-2-2-2-2-6-6-6-6-6-6-6-6-6-6-6-6-6-6-2-2-----------------------|
 E|----------------------------0-0-4-4-4-4-4-4-4-4-4-4-4-4-4-4-0-0-----------------------|
 PM- - - - - - - - - - - - - - - - - - - - - - - - - - - - - - - -|

 


 


 Verse


 Riff.B End Riff.B


 

 
 e|--------------------------------------------------------------------------------------|
 B|--------------------------------------------------------------------------------------|
 G|--------------------------------------------------------------------------------------|
 D|4-4-4-4-4-4-4-4-4-4-4-4-4-4---------------------6-6-6-6-6-6-6-6-----------------------|
 A|2-2-2-2-2-2-2-2-2-2-2-2-2-2-2-2-6-6-6-6-6-6-6-6-6-6-6-6-6-6-6-6-----------------------|
 E|----------------------------0-0-4-4-4-4-4-4-4-4-4-4-4-4-4-4-4-4-----------------------|
 PM- - - - - - - - - - - - - - - - - - - - - - - -|

 


 


 Pre-Chorus


 Riff.C


 

 
 e|--------------------------------------------------------------------------------------|
 B|--------------------------------------------------------------------------------------|
 G|4-4-4-4--4--4--4--8-8-8-6-6-6-4-6--6-6--6--6/8----------------------------------------|
 D|x-x-x-x--x--x--x--x-x-x-x-x-x-x-x--x-x--x--x-x----------------------------------------|
 A|2-2-2-2--2--2--2--6-6-6-4-4-4-2-4--4-4--4--4/6----------------------------------------|
 E|--------------------------------------------------------------------------------------|

 


 


 End Riff.C


 

 
 e|--------------------------------------------------------------------------------------|
 B|--------------------------------------------------------------------------------------|
 G|11--4-4-4-4--4--4--4--8-8-8-6-6-6-4-6--6-6--6--6/8------------------------------------|
 D|-x--x-x-x-x--x--x--x--x-x-x-x-x-x-x-x--x-x--x--x-x------------------------------------|
 A|-9--2-2-2-2--2--2--2--6-6-6-4-4-4-2-4--4-4--4--4/6------------------------------------|
 E|--------------------------------------------------------------------------------------|

 


 


 Chorus


 Riff.D


 

 
 e|--------------------------------------------------------------------------------------|
 B|--------------------------------------------------------------------------------------|
 G|11--11-11--11-11-11--11-11-11--11-11-11--8--8-8--8-8-8--8-8-8--8-8-8------------------|
 D|-x---x--x---x--x--x---x--x--x---x--x--x--x--x-x--x-x-x--x-x-x--x-x-x------------------|
 A|-9---9--9---9--9--9---9--9--9---9--9--9--6--6-6--6-6-6--6-6-6--6-6-6------------------|
 E|--------------------------------------------------------------------------------------|

 


 


 End Riff.D


 

 
 e|--------------------------------------------------------------------------------------|
 B|--------------------------------------------------------------------------------------|
 G|6--6-6--6-6-6--6-6-6--6-6-6-6/8-4--4-4-6/8-4--4-4-6/8---------------------------------|
 D|x--x-x--x-x-x--x-x-x--x-x-x-x-x-x--x-x-x-x-x--x-x-x-x---------------------------------|
 A|4--4-4--4-4-4--4-4-4--4-4-4-4/6-2--2-2-4/6-2--2-2-4/6---------------------------------|
 E|--------------------------------------------------------------------------------------|

 


 


 Verse


 Riff.E End Riff.E


 

 
 e|--------------------------------------------------------------------------------------|
 B|--------------------------------------------------------------------------------------|
 G|4-------------------------------------------------------------------------------------|
 D|4-4-4-4-4-4-4-4-4-4-4-4-4-4-4---------------------------------------------------------|
 A|2-2-2-2-2-2-2-2-2-2-2-2-2-2-2-2-2-6-6-6-6-6-6-6-6-6-6-6-6-6-6-2-2---------------------|
 E|------------------------------0-0-4-4-4-4-4-4-4-4-4-4-4-4-4-4-0-0---------------------|
 PM- - - - - - - - - - - - - - - - - - - - - - - - - - - - - - - -|

 


 


 Interlude


 Riff.F End Riff.F


 

 
 e|--------------------------------------------------------------------------------------|
 B|-------------------------7------------------------------------------------------------|
 G|11-----------------8-6-----8-6h8p6--8-6-----8-6---------------------------------------|
 D|-x---------------------9----------------9-6-----9-9-----------------------------------|
 A|-9------------------------------------------------------------------------------------|
 E|--------------------------------------------------------------------------------------|

 


 


 Chorus


 Riff.G


 

 
 e|--------------------------------------------------------------------------------------|
 B|--------------------------------------------------------------------------------------|
 G|11--11-11--11-11-11--11-11-11--11-11-11--8--8-8--8-8-8--8-8-8--8-8-8------------------|
 D|-x---x--x---x--x--x---x--x--x---x--x--x--x--x-x--x-x-x--x-x-x--x-x-x------------------|
 A|-9---9--9---9--9--9---9--9--9---9--9--9--6--6-6--6-6-6--6-6-6--6-6-6------------------|
 E|--------------------------------------------------------------------------------------|

 


 


 End Riff.G


 

 
 e|--------------------------------------------------------------------------------------|
 B|--------------------------------------------------------------------------------------|
 G|6--6-6--6-6-6--6-6-6--6-6-6-6/8-4--4-4-6/8-4--4-4-6/8-4-------------------------------|
 D|x--x-x--x-x-x--x-x-x--x-x-x-x-x-x--x-x-x-x-x--x-x-x-x-4-------------------------------|
 A|4--4-4--4-4-4--4-4-4--4-4-4-4/6-2--2-2-4/6-2--2-2-4/6-2-------------------------------|
 E|--------------------------------------------------------------------------------------|

 


 


 Chorus


 Riff.H End Riff.H


 

 
 e|--------------------------------------------------------------------------------------|
 B|--------------------------------------------------------------------------------------|
 G|--------------------------------------------------------------------------------------|
 D|-----------------------------18--18-18--18--18-18--18--18-18--18--18-18---------------|
 A|------------------------------x---x--x---x---x--x---x---x--x---x---x--x---------------|
 E|1/////////////////////////16-16--16-16--16--16-16--16--16-16--16--16-16---------------|

 


 


 Riff.I End Riff.I


 

 
 e|--------------------------------------------------------------------------------------|
 B|--------------------------------------------------------------------------------------|
 G|--------------------------------------------------------------------------------------|
 D|16--16-16--16--16-16--16--16-16--16--16-16-14--14-14--14--14-14--14--14-14--14--14-14-|
 A|-x---x--x---x---x--x---x---x--x---x---x--x--x---x--x---x---x--x---x---x--x---x---x--x-|
 E|14--14-14--14--14-14--14--14-14--14--14-14-12--12-12--12--12-12--12--12-12--12--12-12-|

 


 


 Riff.J End Riff.J


 

 
 e|--------------------------------------------------------------------------------------|
 B|--------------------------------------------------------------------------------------|
 G|11--11-11--11--11-11--11--11-11--11--11-11-8--8-8--8--8-8--8--8-8--8--8-8-------------|
 D|-x---x--x---x---x--x---x---x--x---x---x--x-x--x-x--x--x-x--x--x-x--x--x-x-------------|
 A|-9---9--9---9---9--9---9---9--9---9---9--9-6--6-6--6--6-6--6--6-6--6--6-6-------------|
 E|--------------------------------------------------------------------------------------|

 


 


 Riff.K End Riff.K


 

 
 e|--------------------------------------------------------------------------------------|
 B|--------------------------------------------------------------------------------------|
 G|6--6-6--6--6-6--6--6-6--6--6-6-4--4-4--4--4-4--4--4-4--4--4-4-------------------------|
 D|x--x-x--x--x-x--x--x-x--x--x-x-x--x-x--x--x-x--x--x-x--x--x-x-------------------------|
 A|4--4-4--4--4-4--4--4-4--4--4-4-2--2-2--2--2-2--2--2-2--2--2-2-------------------------|
 E|--------------------------------------------------------------------------------------|

 


 


 Riff.L End Riff.L


 

 
 e|--------------------------------------------------------------------------------------|
 B|--------------------------------------------------------------------------------------|
 G|6--6-6--6--6-6--6--6-6--6--6/8--------------------------------------------------------|
 D|x--x-x--x--x-x--x--x-x--x--x-x-2------------------------------------------------------|
 A|4--4-4--4--4-4--4--4-4--4--4/6-2------------------------------------------------------|
 E|-------------------------------0------------------------------------------------------|
 1.Intro-Verse-Riff.A(x4)→Verse-Riff.B→Pre-Chorus-Riff.C→Chorus-Riff.D
 2.Verse-Riff.E→Verse-Riff.A→Verse-Riff.B→Pre-Chorus-Riff.C→Chorus-Riff.D(x2)
 3.Interlude-Riff.F→Verse-Riff.A→Verse-Riff.B→Pre-Chorus-Riff.C→Chorus-Riff.D

 


 →Chorus-Riff.G→Chorus-Riff.H→Chorus-Riff.I→Chorus-Riff.J→Chorus-Riff.K


 →Chorus-Riff.J→Chorus-Riff.L


 

 
 ------------------------------------------------------------------------------------------


Important: The song above is NOT stored on the Chordie server. The original song is hosted at www.guitartabs.cc. Chordie works as a search engine and provides on-the-fly formatting. Chordie does not index songs against artists'/composers' will. To remove this song please click here.

This song is displayed as text-only. Transposing and tuning is only available for chordpro-songs.
Rate #1 of 7 versions

Jango Player

Login - add to songbook

SHARE PAGE  




You need to log in to post comments