Guitar Tabs, Chords and Lyrics
Update 25:10. 13:00. Site is back up running again. Songbooks are recovered. Woring on getting search back up..


Write It on Your Skin   Newton Faulkner

 
 Bb:-----------------------------------------------|
 F :-----------------------------------------------|
 Eb:-----------------------------------------------|
 Bb:--5-5-5-5-0-0-0-0-7-7-7-7-7-7-7-7--------------|
 F :-----------------------------------------------|
 Bb:-5-5-5-5-0-0-0-0-7-7-7-7-7-7-7-7---------------|

 


 


 ( Tab from: http://www.guitartabs.cc/tabs/n/newton_faulkner/write_it_on_your_skin_tab_ver_2.html )


 [1] [2]* [3] [4]* [1] [2]* [3] [4]* [1] [2]* [3] [4]* [1] [2]* [3] [4]* [1] [2]* [3] [4]* [1] [2]* [3] [4]* [1] [2]* [3] [4]* [1] [2]* [3] [4]*


 

 
 Bb:---------------------------------|---------------------------------|
 F :---------------------------------|---------------------------------|
 Eb:---------------------------------|---------------------------------|
 Bb:--0-0-0-0-0-0-0-0-0-0-0-0-0-0-0-0|-0-0-0-0-0-0-0-0-0-0-0-0-0-0-0-0-|
 F :-------0-2-4-2-0-----------------|------0-2-4-2-0--0-0-0-0-0-0-0-0-|
 Bb:-0-2-4-----------0-0-0-0-0-0-0-0-|0-2-4------------0-0-0-0-0-0-0-0-|

 


 


 CHORUS


 [1] [2] [3] [4] [1] [2] [3] [4] [1] [2] [3] [4+1234] [1] [2] [3] [4+123412341234]  

 
 Bb:-0-------0-------0------0----|-0------0----0--------------|
 F :-0-------0-------0------0----|-0------0----0--------------|
 Eb:-7-------9-------11-----4----|-2------4----7--------------|
 Bb:-0-------0-------0------0----|-4------5----0--------------|
 F :-5-------7-------9------2----|-x------x----5--------------|
 Bb:-0---------------------------|-4------5-------------------|

 


 


 Ending


 

 
 Bb:-----------------------------------------------|
 F :-----------------------------------------------|
 Eb:--4-4-4-4-2-2-2-2------------------------------|
 Bb:------------------5-5-5-5----------------------|
 F :-2-2-2-2-0-0-0-0-------------------------------|
 Bb:-----------------5-5-5-5-5---------------------|


Important: The song above is NOT stored on the Chordie server. The original song is hosted at www.guitartabs.cc. Chordie works as a search engine and provides on-the-fly formatting. Chordie does not index songs against artists'/composers' will. To remove this song please click here.

This song is displayed as text-only. Transposing and tuning is only available for chordpro-songs.
Rate #5 of 8 versions

Login - add to songbook

SHARE PAGE  




You need to log in to post comments