Guitar Tabs, Chords and Lyrics
Update 25:10. 13:00. Site is back up running again. Songbooks are recovered. Woring on getting search back up..


Dive  Nirvana

tabbed by Echo Flanger (andy@emily-plays.net)
DIVE
Tuning:Standard
MAIN RIFF
[F#5] [G5] [F#5] [G5] [F#5E5]  
 
 -------------------I-------------------|I
 -------------------I---------/9-9-9----|I
 -------------------I---------/9-9-9----|I
 -4----4b5r4-----4b5I-r4-2-2--/9-9-9-0--|I
 -4----4b5r4-----4b5I-r4-2-2--/7-7-7-0--|I
 -2--0-2b3r2--0--2b3I-r2-0-0---------0--|I

VERSE/INTERLUDE
[F#7] [E]  
 
 ---------I------0-0-0---|
 ---------I------0-0-0---|
 ---------I------1-1-1-0-|
 ------2--I------2-2-2-0-|
 ----1----I---2--2-2-2-0-|
 2-2------I---0--0-0-0-0-|

CHORUS
[B5] [C#5] [G5] [E]  
 
 ----------I------0--0----|I
 ----------I------0--0----|I
 4--4-6--6-I------1--1----|I
 4--4-6--6-I-5--5-2--2-0--|I
 2--2-4--4-I-5--5-2--2-0--|I
 ----------I-3--3-0--0-0--|I

SOLO
 
 -----------------I-----------------|I
 -----------------I-----------------|I
 -----------------I-----------------|I
 8--6--8b9-8--8b9-I-r8-6---------6--|I
 -----------------I------7--7--7----|I
 -----------------I-----------------|I


Important: The song above is NOT stored on the Chordie server. The original song is hosted at www.guitartabs.cc. Chordie works as a search engine and provides on-the-fly formatting. Chordie does not index songs against artists'/composers' will. To remove this song please click here.

Text color:
Chord color:
Chord grids: 
Font size:    
Page size: 

B5 C#5 E F#5 F#7 G5
Rate #13 of 13 versions

Jango Player

Login - add to songbook

SHARE PAGE  




You need to log in to post comments