Guitar Tabs, Chords and Lyrics
Server problems seems to be fixed. Chordie has been experiencing problems with songs disappearing. These issues now seems to be fixed, but still verifying the fix. If you find anything strange, please email admin@chordie.com.


Pennyroyal Tea  Nirvana

Title: Pennyroyal Tea
By: Nirvana
Submitted By: Jason Sauve
 
 ------------------------------------------------

Legend:
p - pull off
Chords:
e B G D A e
Am 0 1 2 2 0 0
G 3 3 0 0 2 3
C 0 1 0 2 3 0
D 2 3 2 0 0 x
A# 1 3 3 0 x x
Em 0 0 0 2 2 0
 
 -----------------------------------------------

Verse 1:
[Am]I'm on my time with [G]everyone
[Am]I have very bad [G]posture
Chorus:
[C]Sit and [D]drink Pennyroyal [A#]Tea
[C]Distill the [D]life that's inside of [A#]me
[C]Sit and [D]drink Pennyroyal [A#]Tea
[C]I'm [D]anemic royal[A#]ty
Verse 2:
[Am]Give me a Leonard Cohen [G]afterworld
[Am]So I can sigh [G]eternally
Chorus:
[C]I'm so [D]tired I can't [A#]sleep
[C]I'm a [D]liar and a [A#]thief
[C]Sit and [D]drink Pennyroyal [A#]Tea
[C]I'm [D]anemic royal[A#]ty
Solo:
 
 e--------------------------------------------3--3-3-3-3-2-0------------
 B-----------------------------------------------------------3-2-0------
 G--2--0--2--0--2p0---2--0--2--0--2p0--0-0-0-----------------------3p0-- (Play 2x)
 D--2--0--------------2--0----------------------------------------------
 A--0--0--------------0--0----------------------------------------------
 E----------------------------------------------------------------------

Then play the same chords as if you were playing the chorus part (but no lyrics included) which are...
(Play these chords 2x after the solo part, then move straight to the next verse)
C....D.....A#
C....D.....A#
Verse 3:
[Am]I'm on warm milk and [G]laxatives
[Am]Cherry-flavored [G]antacids
Chorus:
[C]Sit and [D]drink Pennyroyal [A#]Tea
[C]Distill the [D]life that's inside of [A#]me
[C]Sit and [D]drink Pennyroyal [A#]Tea
[C]I'm [D]anemic royal[A#]ty
At the end of the song Kurt closes with these chords I believe, which are strummed only once but played in 3 sections...
Am....Em
Then the final, which is played right after those 2 chords
 
 e------0---------------
 B----0-----------------
 G--0-------------------
 D----------------------
 A----------------------
 E----------------------

That's it, I am almost 100% sure that this is correct
If any problems e-mail me at goose09@hotmail.com
Enjoy!

Important: The song above is NOT stored on the Chordie server. The original song is hosted at www.guitartabs.cc. Chordie works as a search engine and provides on-the-fly formatting. Chordie does not index songs against artists'/composers' will. To remove this song please click here.

Text color:
Chord color:
Chord grids: 
Font size:    
Page size: 

A# Am C D G
Rate #2 of 20 versions

Jango Player

Login - add to songbook

SHARE PAGE  




You need to log in to post comments