Guitar Tabs, Chords and Lyrics
Major upgrade!! After one year development the new version of Chordie is now online! Please give feedback.


Rape Me   Nirvana

 
 |------------------|
 |------------------|
 |------------/17\--|
 |------------------|

 


 Chorus 1, Verse 2 Play 7


 Times


 [1] [2] [+] [3] [+] [4] [+] [1] [2] [+] [3] [+] [4] [+] [1] [2] [+] [3] [+] [4] [+] [1] [2] [+] [3] [+] [4] 


 [+]  

 
 |------------------|------------------|------------------|------------------|
 |------------------|------------------|------------------|---------5---5----|
 |---------3-3-3-3--|------------------|---------3-3/5-5--|--7--7-7---7---7--|
 |--5--5-5----------|--0--0-0-3-3-3-0--|--5--5-5----------|------------------|

 


 Bridge Play 4 Times


 [1] [2] [+] [3] [+] [4] [+] [1] [2] [+] [3] [+] [4] [+] [1] [+] [2] [+] [3] [+] [4] [+] [1] [+] [2] [+] [3] [+] 


 [4] [+]  

 
 |------------------|------------------|------------------|------------------|
 |---------------2--|------------------|------------------|------------------|
 |--4--4-4-4-2-4----|--0--0-0----------|------------------|------------------|
 |------------------|---------3-2-1-0--|--1-1-1-1-1-1-1-1-|--3-3-3-3-3-3-3-3-|

 


 


 [1] [2] [3] [4] [1] [2] [3] [4]  

 
 |------------------|------------------|
 |------------------|------------------|
 |------------------|------------------|
 |-/12--------------|------------------|

 


 Rest for 7 Measures then…


 


 [1] [2] [3] [4]  

 
 |------------------|
 |------------------|
 |------------/17\--|
 |------------------|

 


 Chorus Play 2


 Times


 [1] [2] [+] [3] [+] [4] [+] [1] [2] [+] [3] [+] [4] [+] [1] [2] [+] [3] [+] [4] [+] [1] [2] [+] [3] [+] [4] 


 [+]  

 
 |------------------|------------------|------------------|------------------|
 |------------------|------------------|------------------|---------5---5----|
 |---------3-3-3-3--|------------------|---------3-3/5-5--|--7--7-7---7---7--|
 |--5--5-5----------|--0--0-0-3-3-3-0--|--5--5-5----------|------------------|

 


 


 Outro Play 4 times


 1 2 + 3 + 4 + 1 2 + 3e+a 4 +


 

 
 |------------------|------------------|
 |------------------|--------5---------|
 |---------3-3-5-5--|------------------|
 |--5--5-5----------|--0-0-0--3-3-3-0--|

 


 


 [1] [2] [3] [4] [1] [2] [3] [4]  

 
 |------------------|------------------|
 |------------------|------------------|
 |------------------|------------------|
 |--5---------------|------------------|


Important: The song above is NOT stored on the Chordie server. The original song is hosted at www.guitartabs.cc. Chordie works as a search engine and provides on-the-fly formatting. Chordie does not index songs against artists'/composers' will. To remove this song please click here.

This song is displayed as text-only. Transposing and tuning is only available for chordpro-songs.
Rate #1 of 16 versions

Jango Player

Login - add to songbook

SHARE PAGE  




You need to log in to post comments